Oops, an error
Loading. Please wait.

Ojalá Me Quieras Libre Tab

149 views 3 this week
no commentswrite comment
1 2 3 4 5
3 more votes to show rating
add to favorites
launch autoscroll
font size
0
reset
how to read this tab
guitar tuner
×
Best way to learn
"Ojalá Me Quieras Libre"
Autoscroll
slow
fast
+/-
esc
set tempo
stop
Bueno ak les dejo este solo a tocarlo y a rockearla saludos LEO Delmas


1|-----------------------------------------------------------------
2|------------------------------------------todo ligado y rapido
3|-4-4-6-6-7-7-9-9-11-11-12-12-11-9------467-764---------679-976--
4|------------------------------------457-------754---579------975
5|---------------------------------457-------------578-----------
6|-------------------------------------------------------------


1|-----------------------------------------------------------------
2|---------------------------5/8-7-5-7-5v-------------------------7-7-7
3|---------7911-1197----12/14------------7--5-7-5--------11/12-11-7-7-7
4|----7911-----------79--------------------------7/9-7-9----------7-7-7
5|7910-------------------------------------------------
6|------------------------------------------------------------


1|---------------------------------------------------171514141517
2|--5/8vv/5-5/////-19vv-17/15--17-141517--1415171514--------
3|/7----------------------------------------se repite la parte rapida
                                            dos veces y termina en la
                                             3|--16vvvvvvvv
bueno ese es todo el tab?. Disfruten cualquier otro
solo que necesiten no duden en pedirlo
a  ?.. CALIFICAR EL TAB NO CUESTA NADA
si tengo buen puntaje puedo seguir subiendo solos?
ya he subido mas de 6 solos de marea y del maestro colibrí?.
la majada, bien venido al?.., entre hormigones,canaleros etc
son todos solos mios date una vuelta y probalos?dedicado a R_TA??
Suggest correction
Give kudos to tab author, rate the tab!
1 2 3 4 5
comments
print report bad tab
guest
You may want to rate the tab now too:
select rating
Wanna post a correction for this tab? Suggest correction