Oops, an error
Loading. Please wait.

Romance De José Etxailarena Bass

by Marea
64 views 1 this week
no commentswrite comment
1 2 3 4 5
3 more votes to show rating
add to favorites
launch autoscroll
font size
0
reset
guitar tuner
×
Best way to learn
"Romance De José Etxailarena"
Autoscroll
slow
fast
+/-
esc
set tempo
stop
    MAREA - ROMANCE DE JOSÉ ETXAILARENA - Bajo
   --------------------------------------------
   --------------------------------------------

   |---------------------------------------------------------------------|
   | ADVERTENCIA	                                                 |
   | Esta tablatura no es perfecta, por lo tanto, tomadlo como una guía  |
   | para saber mas o menos como van las notas, y a partir de esto,      |
   | conseguir el ritmo adecuado y tener tu propia versión lo mas exacta |
   | posible, ¡asi que ánimo y a tocar!                                  |
   |---------------------------------------------------------------------|

     Intro
    ------------------ -----------------------------------------------------
    ------------------ -----------------------------------------------------
    ----3------------- --7---7-7-7-7---7---7-7-7-7---7--7-7-7-7---7-7-7-7-7-
    ----------3------- -----------------------------------------------------

    ---------------------------------------------
    ---------------------------------------------
    -3---3-3-3-3-3-3-3-3-3-----------------------
    -----------------------3---3-3-3-3-3-3-3-3-3-


    'Me levanté de la cama...'

    ------------------------------------------------------------------------  |
    ------------------------------------------------------------------------  |
    7---7-----3---3---------------5---5-5-5-5-5-7---7-----3---3-------------  |
    --------------------3---3---------------------------------------3---3---  |
                                                                              |
                                                                              | X2
    ----------------                                                          |
    ----------------                                                          |
    ----------------                                                          |
    --5---5-5-5-5-5-                                                          |


    'Este niño nunca va a llegar a ná...'

    ------------------------------------------------------------------   |
    ------------------------------------------------------------------   |
    ----------------------3---3-3-3-3-3-3-3-3-3-5---5-5-5-5-5-5-5-5-5-   |
    1---1-1-1-1-1-1-1-1-1---------------------------------------------   |
                                                                         |
       trozo1              (en la segunda vez cambia el trozo1 por este) | X2
    --------------------      ----------------------------------------   |
    --------------------      ----------------------------------------   |
    --------------------      ----------------------------------------   |
    5---5-5-5-5-5-5-5-5-      5---5-5-5-5-5-5-5-5-3---3-3-3-3-3-3-3-3-   |


    ESTRIBILLO   'Y entra el amor...'

    -----------------------------------------------------------------------  |
    -----------------------------------------------------------------------  |
    4--4-4-4-4-4-3---------------------------------------------------------  |
    ---------------4---4-4-4-4-5-6---6-6-6-6-6-6-5-1---1-1-1-1-1-6---6-6-6-  |
                                                                             |
                                                                             |X2
    ----------------------------------------                                 |
    ----------------------------------------                                 |
    --3-4---4-4-4-4-4-----------------------                                 |
    6-----------------4---4-4-4-4-4-4-4-4-4-                                 |

    Puente1
    ----------------------------------------------------------------
    ----------------------------------------------------------------
    0-0-0-0-0-0-0-0-0-0-0-0-0-0-0-0-0-0-0-0-0-0-0-0-0-0-0------3----
    ------------------------------------------------------3---------


    |-----------------------------------------------------|
    | Repetir todo de nuevo excepto la intro y el puente1 |
    |-----------------------------------------------------|

    puente2             (Solo de Kolibrí)
    -----------------   ---------------------------------------------------  |
    -----------------   ---------------------------------------------------  |X4
    5----3---2-----2-   --7---7-----7---7----3---3-3-3-3-3-----------------  |
    -----------------   -----------------------------------3---3-3-3-3-3---  |


    -----------------------------------------------------------------------  |
    -----------------------------------------------------------------------  |
    ---------------------3---3-3-3-3-3-3-3-3-5---5-5-5-5-5-5-5-5-----------  |
    -1---1-1-1-1-1-1-1-1-----------------------------------------5---5-5-5-  |
                                                                             |
                                                                             |X4
    -------------                                                            |
    -------------                                                            |
    -------------                                                            |
    5-5-5-5-5-5--                                                            |

    'No hay romance ni flor...'

    ---------------------------------  |
    ---------------------------------  |
    -------5/3------------3---3------  |X2
    -5/3-----------3/1/3-----------3-  |


    -------------------------------------------------------------------
    -------------------------------------------------------------------
    -------------------5---5-5-5-5-5-5-5-------------------3---3-3-3---
    -5---5-5-5-5-5-5-5-------------------3---3-3-3-3-3-3-3-----------3-


    -----------------------------------------
    -----------------------------------------
    ------------------5---5-5-5-5-5-5-5------
    5---5-5-5-5-5-5-5-------------------3-3--


    |-----------------------------|
    | Repetir 1 vez el estribillo |
    |-----------------------------|


    Final

    ------------------||
    ------------------||
    ------------------||
    ---------5/3------||


   - Si me quereis decir algo mi dirección es bassrookie@ -
Suggest correction
Give kudos to tab author, rate the tab!
1 2 3 4 5
comments
print report bad tab
guest
You may want to rate the tab now too:
select rating
Wanna post a correction for this tab? Suggest correction