Oops, an error
Loading. Please wait.

Si Viene La Pestañi Tab

by Marea
16 views 1 this week
no commentswrite comment
1 2 3 4 5
3 more votes to show rating
add to favorites
launch autoscroll
font size
0
reset
how to read this tab
guitar tuner
×
Best way to learn
"Si Viene La Pestañi"
Autoscroll
slow
fast
+/-
esc
set tempo
stop
Marea - Si Viene La Pestañí
Tab By: KoYi


INTRO

|--------------------------------------|
|--------------------------------------|
|--------7-7-7--12-12-12------------7--|
|-2-2-2--7-7-7--12-12-12-----2-2-2--7--| Tirriquitraun!
|-2-2-2--5-5-5--10-10-10-----2-2-2--5--|
|-0-0-0----------------------0-0-0-----|

|-------------------------|
|-------------------------|
|--------7-7-7--12-12-12--|
|-2-2-2--7-7-7--12-12-12--| [x4]
|-2-2-2--5-5-5--10-10-10--|
|-0-0-0-------------------|


VERSO

Ya estoy de pié...
|----------------------------------------------|
|----------------------------------------------|
|--------7-7-7--9-9-9--------------------------|
|-2-2-2--7-7-7--9-9-9--11-11-11--5-5-5--7-7-7--| [x4]
|-2-2-2--5-5-5--7-7-7--11-11-11--5-5-5--7-7-7--|
|-0-0-0----------------9--9--9---3-3-3--5-5-5--|


ESTRIBILLO

G5                      D5
Nunca sabrás donde me meto
       G5                    A5
a embestir cual jabalí si vienen los picoletos a por mi
G5                       D5         G5
en el rincon de algun bareto, en un hueco del colchón
       A5                    
Dónde no tenga ná que decir, si viene la pestañí

[ch]B[/ch] viene [ch]A[/ch] pestañí...
|-------------------------|
|-------------------------|
|--------7-7-7--12-12-12--|
|-2-2-2--7-7-7--12-12-12--| [x4]
|-2-2-2--5-5-5--10-10-10--|
|-0-0-0-------------------|


SOLO

He puesto lo que he podido escuchar, 
si alguien consigue completar el resto
le agradecería que me lo enviase.

Le juro a usté...
|-------------------------------------|
|-------------10---8
|--7/9~---7-9----9----9-7-9-------9~--|
|-------------------------------------|
|-------------------------------------|
|-------------------------------------|

na ke perder en el mundo...
|----------------------------|
|--------10-10-8~---10-------|
|-9--------------------9-----|
|----------------------------|
|----------------------------|
|----------------------------|

Aqui podeis seguir aciendo la parte del verso hasta
llegar otra vez al estribillo.


ESTRIBILLO


FINAL

Ay ay ay ay ay ay....
|------------|
|------------|
|------------|
|-2-2-2-2-2--| etc...
|-2-2-2-2-2--|
|-0-0-0-0-0--|

2ª guitarra
|-12-12-12-12-12-12--|
|--------------------|
|--------------------|
|--------------------| etc...
|--------------------|
|--------------------|

Ale yastá, si no entendeis mis simbolitos:

~ = aki dejais ke suene la nota un rato
/ = arrastrais el dedo sin levantarlo de una nota a otra

Suggest correction
Give kudos to tab author, rate the tab!
1 2 3 4 5
comments
print report bad tab
guest
You may want to rate the tab now too:
select rating
Wanna post a correction for this tab? Suggest correction