Oops, an error
Loading. Please wait.

Ya Lo Dijo El Camarón Tab

34 views 1 this week
no commentswrite comment
1 2 3 4 5
3 more votes to show rating
add to favorites
launch autoscroll
font size
0
reset
how to read this tab
guitar tuner
Autoscroll
slow
fast
+/-
esc
set tempo
stop
Help us to improve Ultimate-Guitar.com Take our survey!
×
- Riff 1. Se toca en la introducción y despues del estribillo con distorsion, 
y despues sin distorsión, mientras Kutxi canta el primer verso 
otra vez.(En el min. 2:04 aprox.)

e:-----------------------------------------|
B:-----------------------------------------|
G:--5---------5---------5-------------7----|
D:--5---------5---------5---------5---7----|
A:--3-0---0-0-3-0---0-0-3-0---0-0-5---5----|
E:------3---------3---------3-----3--------|

- Este riff se repite durante el verso:

e:-----------------------------------|
B:-----------------------------------|
G:----------------------------------7|
D:--5---------5---------5---------5-7|
A:--5-0---0-0-5-0---0-0-5-0---0-0-5-5|
E:--3---3-----3---3-----3---3-----3--|

 Menudo pastel te ha tocado comer esta vez
cortar mi polla y atarme de manos y pies ¡atrévete!
Hablame al oido que quiero saber
Si aun tengo un sitio en que hacerme el dormido debajo tu piel

E5                     D5 
Ya lo dijo el camaron
E5                     C5
Quita una pena otra pena y un dolor otro dolor
E5                     D5
Eso es lo que digo yo
E5                     C5      
Antes que cortar mis venas que te den por culo pinto un corazon

Riff 1

- Los demás versos igual. No se si estara bien, pero a mi más o menos me suena. Se admiten correcciones y eso. Si alguien 
se anima y saca el solo, ¡¡que lo mande, cojones!!

Tabulado por: Emilio Martín 
E-Mail: Deep_purple_666@
Suggest correction
Give kudos to tab author, rate the tab!
1 2 3 4 5
comments
print report bad tab
guest
You may want to rate the tab now too:
select rating
Wanna post a correction for this tab? Suggest correction