Oops, an error
Loading. Please wait.

Ya Lo Dijo El Camarón Bass

by Marea
40 views 1 this week
no commentswrite comment
1 2 3 4 5
3 more votes to show rating
add to favorites
launch autoscroll
font size
0
reset
guitar tuner
×
Best way to learn
"Ya Lo Dijo El Camarón"
Autoscroll
slow
fast
+/-
esc
set tempo
stop
  intro
G:---------------------
D:--3-----3-----3---------
A:---333---333---333---3--       X4
E:--------------------1----
 base
G:----------------------
D:----------------------
A:-1-333-1-333-1-333---5      X4
E:-------------------1--
  estribillo
G:--------------------------------
D:-------------------------------- x2
A:---33-1-333-1-3---55-3-555-3-5--
E:-1-------------1---------------1
 intro
G:---------------------
D:--3-----3-----3---------
A:---333---333---333---3--       X2
E:--------------------1----
 base
G:----------------------
D:----------------------
A:-1-333-1-333-1-333---5      X4
E:-------------------1--
 estribillo
G:--------------------------------
D:-------------------------------- x2
A:---33-1-333-1-3---55-3-555-3-5--
E:-1-------------1---------------1
 intro
G:---------------------
D:--3-----3-----3---------
A:---333---333---333---3--       X12
E:--------------------1----
 estribillo
G:--------------------------------
D:-------------------------------- x2
A:---33-1-333-1-3---55-3-555-3-5--
E:-1-------------1---------------1
 intro
G:---------------------
D:--3-----3-----3---------
A:---333---333---333---3--
E:--------------------1----
Suggest correction
Give kudos to tab author, rate the tab!
1 2 3 4 5
comments
print report bad tab
guest
You may want to rate the tab now too:
select rating
Wanna post a correction for this tab? Suggest correction