Oops, an error
Loading. Please wait.

Mírame Tab

12 views 1 this week
no commentswrite comment
1 2 3 4 5
3 more votes to show rating
add to favorites
launch autoscroll
font size
0
reset
how to read this tab
guitar tuner
Autoscroll
slow
fast
+/-
esc
set tempo
stop
Help us to improve Ultimate-Guitar.com Take our survey!
×
Esta es una muy buena canción de Mari Lechuga
espero y les guzten estas tabs
xxxxxxxxxxxxxxxxxxxxxxxxxxxxxxxxxxxxxxxxxxxxxxxxxxxxxxxxxxxxx
Intro :
Guitarra 1:
X 2 tiempos
a|---------------------------------------------------------------------|
b|------3-------3---------3-------3-------3-------3--------3-------3---|
G|----4---4---4---------4---4---4-------4---4---4--------4---4---4-----|
D|--5-------5-----5h4-4-------4-----4-2-------2------2-4-------4-----4-|
A|---------------------------------------------------------------------|
E|---------------------------------------------------------------------|

Guitarra 2: entra al segundo tiempo de la guitar1

a|---------------------------------------------------------------------|
b|------3-------3---------3-------3-------3-------3--------3-------3---|
G|----4---4---4---------4---4---4-------4---4---4--------4---4---4-----|
D|--5-------5-----5h4-4-------4-----4-2-------2------2-4-------4-----4-|
A|---------------------------------------------------------------------|
E|---------------------------------------------------------------------|

a|---------------------------------------------------------------------|
b|------3-------3--------3-------3-------3-------3--------3-------3----|
G|----4---4---4--------4---4---4-------4---4---4--------4---4---4------|
D|--5-------5---------4------4-------2-------2--------4-------4-----4--|
A|---------------------------------------------------------------------|
E|---------------------------------------------------------------------|

Guitarra 1: entra con distorcion

a|----------------------------------------------|
b|----------------------------------------------|
G|----------------------9-9---------------------|
D|--5-5-------9-9-------9-9-(X 3)-77777777------|
A|--5-5-(X 3)-9-9-(X 3)-7-7-------99999999------|
E|--3-3-------7-7-----------------77777777------|

a|-----------------------------------------------------------|
b|-----------------------------------------------------------|
G|----------------------------999999999999-------------------|
D|--555555555555/999999999999-999999999999-999999999999--5~--|
A|--555555555555/999999999999-777777777777-999999999999--5~--|
E|--333333333333/777777777777--------------777777777777--3~--|

Guitarra 2:

a|---------------------|
b|--3-2-0--------------|
G|--------2-0----------| X 7
D|------------4-2-0----|
A|---------------------|
E|---------------------|

a|--3~~~---2~~~---0~~~---2~~~-----|
b|--3~~~---3~~~---0~~~---3~~~-----|
G|--4~~~---4~~~---0~~~---4~~~-----| X 2
D|--5~~~---4~~~---2~~~---4~~~-----|
A|--5~~~---2~~~---2~~~---2~~~-----|
E|--3~~~---2~~~---0~~~---2~~~-----|

Guitarra 1:

a|--------------------------------------------------|
b|--------------------------------------------------|
G|--------------------------------9-----------------| X 2
D|------5------------9------------9-----------9-----|
A|------5------------9--------9-7-7-----------9-----|
E|--4-3-3?(X 4)--8-7-7?(X 4)-------?(X 4)?8-7-7-----|
 PM|---|        |---|        |---|       |---|

Guitarra 1:

a|----------------------------|
b|----------------------------|
G|----------------------------| X 3
D|--5~~~-------------9~~~-----|
A|--5~~~-------------9~~~-----|
E|--3~~~-------------7~~~-----|

a|----------------------------|
b|----------------------------|
G|----------------------------|
D|--5~~~-------------9999-----|
A|--5~~~-------------9999-----|
E|--3~~~-------------7777-----|


Guitarra 2: al terminar kada tiempo de la 1ra guitar
             Bueno estos Bends son algo lebes

a|---------------------------|
b|---------------------------|
G|---------------------------| X 4
D|--5b5b-4b4b-3b3b-2b2b-0----|
A|---------------------------|
E|---------------------------|

Guitarra 1: uooo uoooooo uooo????.

a|--------------------------|
b|--------------------------|
G|------------------9-------|
D|--5---------5/99--9---9---|
A|--5---------5/99--7---9---|
E|--3---------3/77------7---|

Guitarra 2:

a|---------------------|
b|--3-2-0--------------|
G|--------2-0----------| X 7
D|------------4-2-0----|
A|---------------------|
E|---------------------|

Guitarra 1:

a|----8--8--8--8-7-7-10--10-----|
b|------------------------------|
G|--10-10-10-10-9-9-10-10-------| X 4
D|------------------------------|
A|------------------------------|
E|------------------------------|

Guitarra 2:

a|---8-8--8-8-x--8-x--8--8-8--8-8-77-x-7-x-1010-x-1010--|
b|---x-x--x-x-x--x-x--x--x-x--x-x-xx-x-x-x--x-x-x--x-x--|
G|--1010-1010-x-10-x-10-1010-1010-99-x-9-x-1010-x-1010--| X 4
D|------------------------------------------------------|
A|------------------------------------------------------|
E|------------------------------------------------------|

Guitarra 1:

a|----------------------------|
b|----------------------------|
G|----------------------------| X 3
D|--5~~~-------------9~~~-----|
A|--5~~~-------------9~~~-----|
E|--3~~~-------------7~~~-----|

a|----------------------------|
b|----------------------------|
G|----------------------------|
D|--5~~~-------------9999-----|
A|--5~~~-------------9999-----|
E|--3~~~-------------7777-----|


Guitarra 2:

a|---------------------------|
b|---------------------------|
G|---------------------------| X 4
D|--5b5b-4b4b-3b3b-2b2b-0----|
A|---------------------------|
E|---------------------------|

Guitarra 1: uooo uoooooo uooo????.

a|--------------------------|
b|--------------------------|
G|------------------9-------|
D|--5---------5/99--9---9---| X 4
A|--5---------5/99--7---9---|
E|--3---------3/77------7---|

Guitarra 2:

a|---------------------|
b|--3-2-0--------------|
G|--------2-0----------| X 7
D|------------4-2-0----|
A|---------------------|
E|---------------------|

Guitarra 1:

a|----------------------------------------------|
b|----------------------------------------------|
G|----------------------9-9---------------------|
D|--5-5-------9-9-------9-9-(X 3)-77------------|
A|--5-5-(X 3)-9-9-(X 3)-7-7-------99-(X 3)------|
E|--3-3-------7-7-----------------77------------|

a|----------------------------|
b|----------------------------|
G|----------------------------| X3
D|--5~~~-------------9~~~-----|
A|--5~~~-------------9~~~-----|
E|--3~~~-------------7~~~-----|

a|----------------------------|
b|----------------------------|
G|----------------------------|
D|--5~~~-------------9-10~~~--|
A|--5~~~-------------9-10~~~--|
E|--3~~~-------------7--8~~~--|

FINAL GUITARRA 2:

a|---------------------------------------------------------------|
b|---------------------------------------------------------------|
G|-12121212121212121212--14~--11~----------/12~--11~--14~--14/16-|
D|--------------------------------12~--14~-----------------------|
A|---------------------------------------------------------------|
E|---------------------------------------------------------------|

a|-------------------------------------------------------------|
b|-------------------------------------------------------------|
G|--12~--14~--11~----------/12~--11~--14~--14/16--16~--18-19~--|
D|---------------12~--14~--------------------------------------|
A|-------------------------------------------------------------|
E|-------------------------------------------------------------|

bueno para dudas,aclaraciones,comentarios ay les dejo me correo
(josue.p.c_182@
saludos pla banda rockera de aka ¨rock hidalgo¨
Suggest correction
Give kudos to tab author, rate the tab!
1 2 3 4 5
comments
print report bad tab
guest
You may want to rate the tab now too:
select rating
Wanna post a correction for this tab? Suggest correction