Oops, an error
Loading. Please wait.

Lejos De Tí Chords

20 views 1 this week
no commentswrite comment
1 2 3 4 5
3 more votes to show rating
add to favorites
launch autoscroll
font size
0
reset
transpose
0
reset
display chords
guitar tuner
Autoscroll
slow
fast
+/-
esc
set tempo
stop
Help us to improve Ultimate-Guitar.com Take our survey!
×
Acordes utilizados:


   Am  C   D   Em  G   X e|-0-|-0-|-0-|-0-|-3-|-2-|
B|-0-|-1-|-3-|-0-|-3-|-3-|
G|-2-|-0-|-2-|-0-|-0-|-0-|
D|-2-|-2-|-0-|-2-|-0-|-0-|
A|-0-|-3-|-0-|-2-|-2-|-0-|
E|-0-|-3-|-x-|-0-|-3-|-2-|


Introduccion:


e|-----------------------------------------------------|-
B|-----------------------------------------------------|-
G|-2-----2----0----------------2-----2----0------------|-
D|----2----2----------------------2----2---------------|-
A|-0----------------3----------5----------------3------|-
E|-----------------------------------------------------|-


      Despues entra otra guitarra
e|----------------------------------------------------------|-
B|----------------------------------------------------------|-
G|----------------------------------------------------------|-
D|-------------2--------------------------------------------|-
A|-0-2-3-2-0-2--------3-5-3-------3-2-3-------2-0-2-0----0--|-
E|-----------------------------------------------------3----|-


    Am                   C                D
El precio de haberte conocido es vivir
                              C                  Am
siempre en el peligro de perderte y ser cautiva
                        C                   D
de una sensacion inigualable que me lleva a
                  C                  Am
ser adicta a tu manera de enredarme


                          C                    D
Y yo que creia que me sentaba bien la soledad
                     C                         Am
era mi refugio para no entregarme a tu maldad
                                 C                               D
ahora que te veo dormido siento que esto nunca se me va a quitar
                      C
y me duele tanto que no digas la verdad


Am C D C (dos veces)

C Em C G X


    C
Te quiero
                        Em
antes de saber lo que busco

antes de entenderlo
   C
y se
         G              X           Am
que mi mundo esta muy lejos de ti


                                      C                     D
Y es que despedazas mis sentidos cuando no se donde estas
                                C                           Am
y derramo celos que antes no tenia y ahora no puedo para
                    C                    D
desde siempre has estado en mis sueños
               C
recobre tu recuerdo con ellos
                         C              D
Y es que se que aunque fuiste mi dueño
                 C
y otras vidas borraron tu sello


    C
Te quiero
                        Em
antes de saber lo que busco

antes de entenderlo
   C
y se
         G              X           Am
que mi mundo esta muy lejos de ti
Suggest correction
Give kudos to tab author, rate the tab!
1 2 3 4 5
comments
print report bad tab
guest
You may want to rate the tab now too:
select rating
Wanna post a correction for this tab? Suggest correction