Oops, an error
Loading. Please wait.

La Flor De La Canela Tab

142 views 3 this week
no commentswrite comment
1 2 3 4 5
3 more votes to show rating
add to favorites
launch autoscroll
font size
0
reset
how to read this tab
guitar tuner
×
Best way to learn
"La Flor De La Canela"
Autoscroll
slow
fast
+/-
esc
set tempo
stop
La flor de la canela


Esta es mi primera transcripción, espero que les guste.
esta modificada en cuanto a las tonalidades pues en
este disco y en esta versión es así(por llamarlo de alguna manera).


E|-666666----------6----6---6-----6---------------------
B|-777777-------9-----9---9----9-----9------------------
G|------------------------------------------777777------
d|------------------------------------------888888------
a|------------------------------------------------------
e|------------------------------------------------------


e|------------------------------------------------------
B|-----7-7-7-7-7-7--------6-7-6-7-6-7----6---4---2------
G|-----8-8-8-8-8-8--------7-8-7-8-7-8----7---5---3------
d|------------------------------------------------------
a|------------------------------------------------------
e|------------------------------------------------------


e|------------------------------------------------------
B|----------------------------6--9--7--6-----6--7--6----
G|---6-6-6-6-6-6-----------6--------------9-------------
d|----------------8--4--8-------------------------------
a|------------------------------------------------------
e|------------------------------------------------------

e-----------------6-----------------
B--------------6--------------------
G-----6-----6-----------------------
d--------8--------------------------

e|---9--8--6--------------------------
B|------------9--7--6--7--6-----------
G|---------------------------8--6--5--
d|------------------------------------
a|------------------------------------
e|------------------------------------


d---8--7-------------------------8-------
a--------9--8--7--------------8-----11--9-8
e-----------------9--8--7--9-------------


                     [ch]A#[/ch]
Déjame que te cuente limeño
[ch]A#7[/ch]                    [ch]D#m[/ch]
déjame que te diga la gloria
       [ch]G#7[/ch]                 [ch]C#[/ch]
del ensueño que evoca la memoria
          [ch]F                     LA#m[/ch]
del viejo puente del río y la alameda

[ch]F                     LA#m[/ch]
Déjame que te cuente limeño
[ch]A#7[/ch]                    [ch]D#m[/ch]
ahora que aún perfuma el recuerdo
    [ch]G#7[/ch]                    [ch]C#[/ch]
ahora que aún se mece en un sueño
          [ch]F                    LA#m[/ch]
del viejo puente del río y la alameda

                  [ch]G#7[/ch]               [ch]C#[/ch]
A) Jazmines en el pelo y rosas en la cara
             [ch]G#7[/ch]                  [ch]C#[/ch]
airosa caminaba, la flor de la canela
            [ch]G#7[/ch]                 [ch]C#[/ch]
derramaba lisura y a su paso dejaba
 [ch]A#7         [ch]D#m[/ch]         SOL#7[/ch]        [ch]C#[/ch]
aroma de mistura que en el pecho llevaba
                    [ch]G#7[/ch]
del puente a la alameda
              [ch]C#                              SOL#7[/ch]
menudo pie la lleva por la vereda que se estremece
                 [ch]C#[/ch]
al ritmo de su cadera
           [ch]G#7[/ch]                  [ch]C#[/ch]
recogía la brisa de la risa del río
       [ch]A#7[/ch]         [ch]D#m[/ch]
y al viento la lanzaba
     [ch]G#7[/ch]          [ch]C#[/ch]
del puente a la alameda

[ch]F                   LA#m[/ch]
Déjame que te cuente limeño
              [ch]F                   LA#m[/ch]
ay deja que te diga moreno mi pensamiento
   [ch]F                        LA#m[/ch]
a ver si así despiertas del sueño
                   [ch]F[/ch]
del sueño que entretiene moreno
        [ch]A#m[/ch]
tu sentimiento

[ch]F             [ch]A#m         FA[/ch]          LA#m[/ch]
Aspira de la lisura que da la flor de Canela
               [ch]F                        LA#m[/ch]
adornada con jazmines matizando su hermosura
[ch]F               [ch]A#m          FA[/ch]          LA#m[/ch]
alfombra de nuevo el puente y engalana la alameda
                   [ch]F                     LA#m[/ch]
que el río acompasará sus pasos por la vereda
             [ch]G#7[/ch]
y recuerda que..... se repite igual.
Suggest correction
Give kudos to tab author, rate the tab!
1 2 3 4 5
comments
print report bad tab
guest
You may want to rate the tab now too:
select rating
Wanna post a correction for this tab? Suggest correction