Oops, an error
Loading. Please wait.

Grita Tu Nombre Bass

20 views 1 this week
no commentswrite comment
1 2 3 4 5
3 more votes to show rating
add to favorites
launch autoscroll
font size
0
reset
guitar tuner
Autoscroll
slow
fast
+/-
esc
set tempo
stop
Aquí les dejo mi primer transcripción. Aunque soy primerizo
estoy seguro que la rola va así. Para cualquier comentario 
escriba de volada.

INTRO Y VERSO
G|----------------------------------------------------------|
D|------------------------------3-5-------------------------|
A|---5--3--3--3-3-----5-3--3-3------5--3--3-3---5--3--------|
E|----------------------------------------------------3--3-3|

CORO
G|----------------------------------------------------------|
D|----------------------------------------------------------|
A|--3--2--2--2-2-2--1-1-1-----------------------------------|
E|------------------------3---------------------------------|

PUENTE (se repite tres veces veces)
G|--------------------------------------------------------
D|--------------------------------------------------------
A|--3-3-3-3--3-3--3-3--6-6-6-6-6-6-8-6-3-3--3-3--3-3--3-3-
E|--------------------------------------------------------

G|----------5----------|
D|--------5---8-5------|
A|--6-6-8---------8----|
E|---------------------|

(esta parte se toca solo una vez)
G|--------------------------------------------------------------|
D|--------------------------------------------------------------|
A|--3-3-3-3--3-3--3-3--6-6-6-6-6-6-8-6-3-3--3-3--3-3--3-3--3-3--|
E|--------------------------------------------------------------|

G|----------------|
D|----------------|
A|--3-3--3-3--3-3-|
E|----------------|

SALIDA 
(ya solo se toca esta parte hasta que la cancion termina)
G|---------------------------------------------|
D|------------------------------3-5------------|
A|---5--3--3--3-3-----5-3--3-3-----------------|
E|---------------------------------------------|
Suggest correction
Give kudos to tab author, rate the tab!
1 2 3 4 5
comments
print report bad tab
guest
Wanna post a correction for this tab? Suggest correction