Oops, an error
Loading. Please wait.

Pórtate Mal Chords

22 views 1 this week
no commentswrite comment
1 2 3 4 5
3 more votes to show rating
add to favorites
launch autoscroll
font size
0
reset
transpose
0
reset
display chords
guitar tuner
×
Best way to learn
"Pórtate Mal"
Autoscroll
slow
fast
+/-
esc
set tempo
stop
Antes que nada, nomas queria decir que esta es mi primer transcripcion, 
entonces es probable que tenga errores.

Intro

e------------------------------------8-7--8-8-7----5--------------------------------
B-----------1--3--5--8--7---7-8-10---------------8----8-7--7-8-10--8-7--8-8-7--3-5--
G--------2--------------------------------------------------------------------------
D--3--5-----------------------------------------------------------------------------
A-----------------------------------------------------------------------------------
E-----------------------------------------------------------------------------------

Parte 1

el día termino,                   ya la luz se escurre    entre las calles vacías
   Em                               Am                                              Em
e--0-----------------0---------------0-----------------------------0-----------------0---------0------
B--0---------------0---0-------------1---------------------------1---1---------------0-------0---0----
G--0-------------0-------0-----------2-------------------------2-------2-------------0-----0-------0--
D--2---------------------------------2-----------------------------------------------2----------------
A--2---------------------------------0-----------------------------------------------2----------------
E--0---------------------------------0-----------------------------------------------0----------------


mañana sale el sol,           que acudirá puntual    como siempre a su cita

  Em                                Am                                      Em
e--0-----------------0---------------0---------------------0-----------------0---------0------
B--0---------------0---0-------------1-------------------1---1---------------0-------0---0----
G--0-------------0-------0-----------2-----------------2-------2-------------0-----0-------0--
D--2---------------------------------2---------------------------------------2----------------
A--2---------------------------------0---------------------------------------2----------------
E--0---------------------------------0---------------------------------------0----------------


Parte 2
sin embargo nada será igual,
D                  E

te digo que nada es igual,
D                  E

cierra los ojos... 
G            
te diré un secreto,
                  D
cierro los míos y dirás una mentira
G                        D

(las partes 1 y 2 se repiten otra vez)

Parte 3
dime si me buscarías los jueves,
Em            C                G
si te atreves, mejor que sea los viernes,
              D                 Em
dime si me buscarías los jueves,
            C           G
si te atreves... mejor que sea los viernes,
                    D                 Em                  
y de paso me dices también...
                  C
cuántos años tienes
            G

(luego se toca esto)


e-----------------12------------------------------------------------------------
B--10-8-7--3/5--------12/11--10--13-12--7-8-10--8--7-8-7--3-5-------------------
G-------------------------------------------------------------------------------
D-------------------------------------------------------------------------------
A-------------------------------------------------------------------------------
E-------------------------------------------------------------------------------

(las partes 1 y 2 se tocan otra vez)

(luego se toca la parte 3 otra vez)

Solo
(durante el solo se tocan los acordes Em,C,G,D... igual que la parte 3)

(despues del solo se tocan los acordes E,Eb,D)

(luego se toca la parte 2 y 3 otra vez)

y luego sige esto.  Durante esta parte se tocan los mismos acordes de la parte 3. [Em,C,G,D]

y apoya tu cabeza entre mis piernas,
te digo que apoyes tu cabeza
entre mis piernas,

pórtate mal
pórtate mal
pórtate mal, mal, mal, mal, mal

  C   D   E   Eb   G
e-3---5---7----6---3-
B-3---5---7----6---3-
G-5---7---9----8---3-
D-5---7---9----8---5-
A-3---5---7----6---5-
E-x---x---x----x---3-
Suggest correction
Give kudos to tab author, rate the tab!
1 2 3 4 5
comments
print report bad tab
guest
You may want to rate the tab now too:
select rating
Wanna post a correction for this tab? Suggest correction