Oops, an error
Loading. Please wait.

Pórtate Mal Tab

97 views 1 this week
no commentswrite comment
1 2 3 4 5
3 more votes to show rating
add to favorites
launch autoscroll
font size
0
reset
how to read this tab
guitar tuner
×
Best way to learn
"Pórtate Mal"
Autoscroll
slow
fast
+/-
esc
set tempo
stop
Intro
e-------------------------------------------------
B-------------------------------------------------
G---------------------12p11---11-12--14----17-16--
D---------------12-14-----------------------------
A--------12-14------------------------------------
E--12s15------------------------------------------

e---------------------------------------------------------
B---------------------------------------------------------
G-17-17-16-12-14-12p11---11-12-14-12-11-11s12p11----------
D------------------------------------------------14-12-14-
A---------------------------------------------------------
E---------------------------------------------------------

Parte 1
 Em                    G                  D                Em
el día termino,   ya la luz se escurre   entre las calles vacías

 Em                      G               D                 Em
mañana sale el sol, que acudirá puntual como siempre a su cita

Parte 2
D                      Em
sin embargo nada será igual,
D                       Em
te digo que nada es igual,
G
cierra los ojos...
                  D
te diré un secreto,
G                             D
cierro los míos y dirás una mentira

(las partes 1 y 2 se repiten otra vez)

Parte 3
Em               C            G
dime si me buscarías los jueves,
         D                      Em
si te atreves, mejor que sea los viernes,
            C                  G
dime si me buscarías los jueves
              D                        Em
si te atreves    mejor que sea los viernes,
 C                 G
y de paso me dices también...
         D                     Em
cuántos años tienes

e-----------------12-------------------------------------------
B--10-8-7--3/5--------12/11--10--13-12--7-8-10--8--7-8-7--3-5--
G--------------------------------------------------------------
D--------------------------------------------------------------
A--------------------------------------------------------------
E--------------------------------------------------------------
(las partes 1 y 2 se tocan otra vez)

(Despues parte 3)

Solo   Em-C-G-D---Em
       E-Eb-D      (arreglo para caer a la parte 2)

D                        Em
sin embargo nada será igual,
D                        Em
te digo que nada es igual,
G                            D
cierra los ojos...te diré un secreto,
G                           D
cierro los míos y dirás una mentira

Em-C-G-D

y apoya tu cabeza entre mis piernas,
te digo que apoyes tu cabeza
entre mis piernas,

pórtate mal
pórtate mal
pórtate mal, mal, mal, mal, mal

  C   D   Em   Eb  G
e-3---5---7----6---3-
B-5---7---8----8---3-
G-5---7---9----8---4-
D-5---7---9----8---5-
A-3---5---7----6---5-
E-x---x---x----x---3-
Suggest correction
Give kudos to tab author, rate the tab!
1 2 3 4 5
comments
print report bad tab
guest
You may want to rate the tab now too:
select rating
Wanna post a correction for this tab? Suggest correction