Oops, an error
Loading. Please wait.

Sed Chords

1 view 1 this week
no commentswrite comment
1 2 3 4 5
3 more votes to show rating
add to favorites
launch autoscroll
font size
0
reset
transpose
0
reset
display chords
guitar tuner
Autoscroll
slow
fast
+/-
esc
set tempo
stop
Help us to improve Ultimate-Guitar.com Take our survey!
×
esta rola sela quiero dedicar a la chica q quiero y q adoro con
todo mi corazon, ya q siempre a estado a mi lado en todo momento 
TE AMO chiquita(ROSA) mucho!!!!!!!!!!!!


INTRO:

E--------------------------------------------------
B--------------------------------------------------
G--------------------------------------------------
D--1------------2--1---1-----------2--1------------
A-----3-----3-------------3-----3------------------   
E--------4-------------------4---------------------

E---------------------------------------------------
B---------------------------------------------------
G---------------------------------------------------
D------------------------------9--9----------------- 
A--3--4--4--5--5--5--7--8--10--------7--------------   
E---------------------------------------------------   * se repite dos veces


E                   C#m
NUNCA PUDIMOS HACER UNA VIDA EN UN EDEN
E                    C#m
NO ESTUVO DE ACUERDO NO ESTUVO DE ACUERDO
E                      C#m
Y NUNCA LOGRAMOS VIVIR UNO PODER CONSTRUIR
          E                C#m
UN TEMPLO ETERNO UN TEMPLO ETERNO
E             C#m
PARA NADA FUE UN ELIXIS SAGRADO
E                                       C#m
FUE UNA DOSIS DE VIDA QUE ME TUVO A SU MERCED
E                     C#m
AHORA FLUYE MI SANGRE SE QUE VIVES EN VERDE
E                                          C#m
HACE UN DESLIZ DEL CALOR QUE NO OLVIDA MI PIEL
F#m                C#m   F#m           C#m              
MALDITO SOLOS SUS LABIOS NO PODERLOS TOCAR 
D                     A   D              E
TUVIERON SIEMPRE ESE DON DE CALMARME LA SED
E             C#m
PARA NADA FUE UN ELIXIS SAGRADO
E                                       C#m
FUE UNA DOSIS DE VIDA QUE ME TUVO A SU MERCED
E                     C#m
AHORA FLUYE MI SANGRE SE QUE VIVES EN VERDE
E                                         C#m
HACE UN DESLIZ DE CALOR QUE NO OLVIDA LA PIEL
F#m                C#m   F#m           C#m
MALDITOS SOLO SUS LABIOS NO PODERLOS TOCAR
D                     A   D              E
TUVIERON SIEMPRE ESE DON DE CALMARME LA SED


E-----------------------------------
B-----------------------------------
G-----------------------------------
D-1-1-1-1-1-3-0-3-4-4-4-4-4-4-3-1---
A-----------------------------------
E-----------------------------------


bueno ahi se las dejo disfrutenla,quejas comentario y/o sugerencias al
corilaconalas666@ chido Rock!!!!!!!!! sin anestecia.
saludos a la chica q amo tanto ROSA
Suggest correction
Give kudos to tab author, rate the tab!
1 2 3 4 5
comments
print report bad tab
guest
You may want to rate the tab now too:
select rating
Wanna post a correction for this tab? Suggest correction