Oops, an error
Loading. Please wait.
40 views 1 this week
no commentswrite comment
1 2 3 4 5
3 more votes to show rating
add to favorites
launch autoscroll
font size
0
reset
how to read this tab
guitar tuner
×
Best way to learn
"Fuga"
Autoscroll
slow
fast
+/-
esc
set tempo
stop
Como no sabía todas las nomenclaturas para estos acordes,
preferí usar números para distinguitirlos.
Se recomienda tocar con arpegios, aunque se lo puede tocar sin ellos.
Es un temazo.

Usa 13 acordes distintos, arpegiados:

1: X-X-7-6-4-0
2: X-X-6-6-4-0
3: X-X-5-6-4-6
4: X-X-4-5-4-4
5: X-X-3-4-2-4
6: X-X-4-3-2-2
7: X-X-6-5-4-4
8: X-X-12-11-10-12
9: X-X-11-11-10-12
10: X-X-10-11-9-11
11: X-X-9-10-9-9
12: X-X-8-9-7-9
13: X-X-6-5-4-0

Parte 1:

  1        2       3       3

e----0-------0-------6-------6---- |
b---4-4-----4-4-----4-4-----4-4--- |
g--6---6-6-6---6-6-6---6-6-6---6-6 |Repite una vez
d-7-----7-6-----6-5-----5-5-----5- |
a--------------------------------- |
E--------------------------------- |

Parte 2:

  4       5       6        7

e----4-------4-------2-------4---- |
b---4-4-----2-2-----2-2-----4-4--- |
g--5---5-5-4---4-4-3---3-3-5---5-5 |
d-4-----4-3-----3-4-----4-6-----6- |
a--------------------------------- |
E--------------------------------- |

Ahora vuelve a repetir todo esto y, cuando, al dejar de cantar,
entran los demás instrumentos, sigue así:

Parte 3:

  8               9               10            10

e-------12--------------12-------------11------------11------- |
b-----10--10----------10--10----------9--9----------9--9------ |
g---11------11--11--11------11--11--11----11--11--11----11--11 |(bis)
d-12----------12--11----------11--10--------10--10--------10-- |
a------------------------------------------------------------- |
E------------------------------------------------------------- |

Parte 4:

  11         12      13      13

e-----9---------9-------0-------0---- |
b----9-9-------7-7-----4-4-----4-4--- |
g--10---10-10-9---9-9-5---5-5-5---5-5 |
d-9-------9--8-----8-6-----6-6-----6- |
a------------------------------------ |
E------------------------------------ |


Terminado esto, repite dos veces la parte 1
y vuelve a cantar con la estrofa 3.

Junto a la letra, el orden sería:

Intro: 1, 2, 3, 3 (bis)

1         2       3       3
Cruzo mis dedos, ya verás,
1          2         3        3
Alguna una estrella hoy caerá,
4      5      6      7
Sostener infidencias.

1          2         3          3
Cierro mis ojos y no estoy aquí,
1           2          3           3
Sueño traiciones, despierto al fin,
4      5       6      7
Suspirar turbulencias.


Parte 3 (bis),
Parte 4,
Parte 1 (bis)


1         2     3       3
Abro mis manos, liberás,
1          2       3      3
Sigo embrujada de soledad.
4        5      6      7
Contendrán apariencias.

1          2      3       3
Cruzo mis dedos, ya verás,
1          2     3        3
Alguna estrella hoy caerá,
4      5      6      7
Sostener infidencias.

(Siguen los arpegios y fin)


Consultas, sugerencias y, quien pueda, nomenclatura "oficial"
de estos acordes, a gonzalorube@

Espero que les guste,

Gonzalo.
Suggest correction
Give kudos to tab author, rate the tab!
1 2 3 4 5
comments
print report bad tab
guest
You may want to rate the tab now too:
select rating
Wanna post a correction for this tab? Suggest correction