Oops, an error
Loading. Please wait.

La Ocasión Para Amarnos Tab

22 views 1 this week
no commentswrite comment
1 2 3 4 5
3 more votes to show rating
add to favorites
launch autoscroll
font size
0
reset
how to read this tab
guitar tuner
Autoscroll
slow
fast
+/-
esc
set tempo
stop
Help us to improve Ultimate-Guitar.com Take our survey!
×
INTRO:  F-A#   x2

e|-------------------------------------------------------
B|----10----11-10-----10---------10----11-10----13-------
G|-10----10-------10----------10----10-------10----------
D|-------------------------------------------------------
A|-------------------------------------------------------
E|-------------------------------------------------------


F
Tu
                     C
La impresión que me das
                    A#
es que pronto te alejaras
        F
de mi amor.


F
No
                  C
no hace falta mentir
                  A#
tienes miedo de no encontrar
      F
libertad.

              Dm
Y no puedo evitar
               Am
al sentir esta soledad
                 A#
recordar tus caricias
                   C
y una voz que por dentro

quiere escapar.


F                 A#
La ocasión para amarnos
                    C
no es tan solo una noche
                 F       F-A#-F
que se pueda olvidar.


F                  A#
La ocasión para amarnos
                C
puede ser una vida
               F     F-A#-F
que nos haga soñar.


F                A#
Llenare tus momentos
                   C
guardare tus secretos
                 Dm
serás libre al amar.

 A#                C
sin pensar que mañana
          F
todo acabara-a.


INTRO:  F-A#  x2


F
Tu
                     C
La impresión que me das
                    A#
es que pronto te alejaras
        F
de mi amor.

F
No
                  C
no hace falta mentir
                  A#
tienes miedo de no encontrar
      F
libertad.

              Dm
Y no puedo evitar
               Am
al sentir esta soledad
                 A#
recordar tus caricias
                   C
y una voz que por dentro

quiere escapar.


F                 A#
La ocasión para amarnos
                    C
no es tan solo una noche
                 F         F-A#-F
que se pueda olvidar.


F                  A#
La ocasión para amarnos
                C
puede ser una vida
               F       F-A#-F
que nos haga soñar.


F                 A#
Cantare tus canciones
              C
te daré emociones
                 Dm
que te harán recordar


 A#               C
que lo nuestro mañana
               F
no ha de termina -ar.


SOLO:

     F                A#
e|--- 13----15----13------13----15----13------
B|-13----13----13------13----13----13---------
G|--------------------------------------------
D|--------------------------------------------
A|--------------------------------------------
E|--------------------------------------------

   C                        F         F-A#-F
e|----13----15----17-----15--------
B|-13----13----13----13-----13-----
G|---------------------------------
D|---------------------------------
A|---------------------------------
E|---------------------------------


F                 A#
La ocasión para amarnos
                    C
no es tan solo una noche
                 F       F-A#-F
que se pueda olvidar.


F                  A#
La ocasión para amarnos
                C
puede ser una vida
               F     F-A#-F
que nos haga soñar.


F                A#
Llenare tus momentos
                   C
guardare tus secretos
                 Dm
serás libre al amar.

 A#                C
sin pensar que mañana
          F
todo acabara-a.


INTRO: F - A# x2
Suggest correction
Give kudos to tab author, rate the tab!
1 2 3 4 5
comments
print report bad tab
guest
You may want to rate the tab now too:
select rating
Wanna post a correction for this tab? Suggest correction