Oops, an error
Loading. Please wait.

Idilio Tab

210 views 1 this week
no commentswrite comment
1 2 3 4 5
3 more votes to show rating
add to favorites
×
Save as Personal and add changes to this tab that will be seen only by you. Learn more ›
×
You can save this tab as Personal to edit and correct it or add notes. All changes will be seen only by you. Learn more »
save as personal
new!
launch autoscroll
font size
0
reset
how to read this tab
guitar tuner
Autoscroll
slow
fast
+/-
esc
set tempo
stop
ESTA CANCION ES MI PRIMERA TRANSCRIPCION ESPERO QUE LES GUSTE
Y ESTA DEDICADA ESPECIALMENTE PARA MI GRAN AMOR
=============================================================
INTRO:
  e  ||   --0-2-4-2-4-2-4-2-4-7-----------|-------------------------------|
  B  ||   -----------------------7~-5-4~--|--2-4-5-4-5-4-5-4-5-9----------|
  G  ||   --------------------------------|----------------------8~-6-5~--|
  D  ||   --------------------------------|-------------------------------|
  A  ||   --------------------------------|-------------------------------|
  E  ||   --------------------------------|-------------------------------|


  E  ||   --------------------------------|--2-4-5-4-5-4-3-2-1-4-2~-------|
  B  ||   --------------------------------|-------------------------------|
  G  ||   --3-5-6-5-6-5-6-5-6-9-----------|-------------------------------|
  D  ||   ----------------------9~-7-6~---|-------------------------------|
  A  ||   --------------------------------|-------------------------------|
  E  ||   --------------------------------|-------------------------------|

INTRO HABLADO
AL AÑO QUE VIENE VOLVERE A BAILAR POR TI
AL AÑO QUE VIENE VOLVERE A SOÑAR POR TI
SUENAN LAS MATRACAS DE ESTE POBRE CORAZON
TESORITO IDILIO DE MI AMOR

A BAILAR MORENOS!!!!!!!!

INSTRUMENTAL CON QUENA
  C-G-A  x2  F-C-G-A x2


C                          G           A
Al año que viene volveré a bailar por ti
C                          G          A
Al año que viene volveré a soñar por ti
F                                   C
Suenan las matracas de este pobre corazón
G                            A
Linda morenita idilio de mi amor       X2


C
REGRESARAS
                 G
MORENITA BELLA FLOR
          C
TE ESPERARE
                 G
TESORITO DE MI AMOR  X2


LUEGO SE REPITE TODO DESDE EL INSTRUMENTAL HASTA EL FINAL


======================================
UN SALUDO A TODOS LOS CUATES DEL SITIO
SI TIENEN DUDAS ESCRIBAN chato_666_007@
Suggest correction
Give kudos to tab author, rate the tab!
1 2 3 4 5
comments
print report bad tab
guest
Wanna post a correction for this tab? Suggest correction