Oops, an error
Loading. Please wait.

Hermoso Cariño Tab

149 views 1 this week
no commentswrite comment
1 2 3 4 5
3 more votes to show rating
add to favorites
launch autoscroll
font size
0
reset
how to read this tab
guitar tuner
Autoscroll
slow
fast
+/-
esc
set tempo
stop
Help us to improve Ultimate-Guitar.com Take our survey!
×
QUE ONDA AQUI LES DEJO ESTA CANCION
QUE PUEDE SERVIR PARA QUE SE LA DEDIQUEN A SU CHAVA

INTRO:

1|-1-1-0---1--1-|-1-1-0---1-0-1-0-1-0-1-0-0-|
2|-------3------|-------3-------------------|
3|--------------|---------------------------|
4|--------------|---------------------------|
5|--------------|---------------------------|
6|--------------|---------------------------|

1|-0-0----------------------0-1-1-0-0------|
2|-----3-1-3-3--3-3-1-0-3-3-----------3-3-1|
3|-----------------------------------------|
4|-----------------------------------------|
5|-----------------------------------------|
6|-----------------------------------------|

INTRO: F-G7, C, G7, C

 C
Hermoso cariño

Hermoso cariño

que Dios me ha mandado

a ser destinado
   Cdim  G7
nomás para mi

G7
Precioso regalo

Precioso regalo

del cielo ha llegado

y que me ha colmado de dicha
 G7  C-Edim,Dm-G7
y amor

             C-Dm-Em

Hermoso cariño
             C-Dm-Em
hermoso cariño
     Dm           C
ya estoy como un niño
           C7
Con nuevo juguete
             F
Contento y feliz.

                            C
No puedo evitarlo ni quiero gritarlo
           G7
Hermoso cariño que Dios ha mandado
           C
Nomas para mi.


PUENTE: F-G7, C, G7, C


             C-Dm-Em
Hermoso cariño
             C-Dm-Em
hermoso cariño
     Dm           C
ya estoy como un niño
           C7
Con nuevo juguete
             F
Contento y feliz.

                            C
No puedo evitarlo ni quiero gritarlo
           G7
Hermoso cariño que Dios ha mandado
       C      G7-C
Nomas para mi.
Suggest correction
Give kudos to tab author, rate the tab!
1 2 3 4 5
comments
print report bad tab
guest
You may want to rate the tab now too:
select rating
Wanna post a correction for this tab? Suggest correction