Oops, an error
Loading. Please wait.

Ayúdame Tab

9 views 1 this week
no commentswrite comment
1 2 3 4 5
3 more votes to show rating
add to favorites
launch autoscroll
font size
0
reset
how to read this tab
guitar tuner
Autoscroll
slow
fast
+/-
esc
set tempo
stop
Help us to improve Ultimate-Guitar.com Take our survey!
×
Empieza con un requinto que es este:


    D             G          A         D
 e---2--2--2--2---7-7-7--5-5-5--3-3-3--2--
 B--3--3--3--3----8-8-8--7-7-7--5-5-5--3--
 G----------------------------------------
 D----------------------------------------
 A----------------------------------------
 E----------------------------------------

     D             G          A         D
 e----2--2--2--2---7-7-7--5-5-5--3-3-3--2--
 B --3--3--3--3----8-8-8--7-7-7--5-5-5--3--
 G ----------------------------------------
 D-----------------------------------------
 A-----------------------------------------
 E-----------------------------------------


D             A                 G
 Te recuerdo ahora como en cada noche
D           A                 G
 Es deseperante tanta confución
              Bm                A
 Y es que no basta con decir adios
             Bm              G
 Cuando te quedas en mi corazón
  D                          A                  G
 Tu voz aun recorre cada instante de mis pensamientos


D            A                G
 Eras tan rebelde como tus ideas
D             A                 G
 Y siempre soñabas con tu libertad
          Bm                A
 Pero tu boca era la eternidad
             Bm                G
 Cuando tu cuerpo era mi realidad
  D                          A                  G
 Tu voz aun recorre cada instante de mis pensamientos


                         Coro


       D                   A                G
 Ayudame a encontrar la salida de este laberinto
       D                 A                  G
 Ayudame a cerrar las heridas que no puedo mas
       Bm                  A
 Ayudame me esta quemando dentro
         G
 Tanto triste sentimiento
       D       A        G
 Ayudame ayudame a olvidar.


            D             G          A         D
 e----------2--2--2--2---7-7-7--5-5-5--3-3-3--2---
 B---------3--3--3--3----8-8-8--7-7-7--5-5-5--3---
 G------------------------------------------------
 D------0-----------------------------------------
 A--0-2-------------------------------------------
 E------------------------------------------------

     D             G          A         D
 e----2--2--2--2---7-7-7--5-5-5--3-3-3--2--
 B --3--3--3--3----8-8-8--7-7-7--5-5-5--3--
 G ----------------------------------------
 D-----------------------------------------
 A-----------------------------------------
 E-----------------------------------------


D            A                G
 Eras tan rebelde como tus ideas
D             A                 G
 Y siempre soñabas con tu libertad
         Bm                 A
 Pero tu boca era la eternidad
             Bm                G
 Cuando tu cuerpo era mi realidad
  D                          A                  G
 Tu voz aun recorre cada instante de mis pensamientos


                    Coro

     D                   A                G
 Ayudame a encontrar la salida de este laberinto
       D                 A                  G
 Ayudame a cerrar las heridas que no puedo mas
       Bm                  A
 Ayudame me esta quemando dentro
         G
 Tanto triste sentimiento
       D       A        G
 Ayudame ayudame a olvidar.


           D             G          A         D
 e----------2--2--2--2---7-7-7--5-5-5--3-3-3--2---
 B---------3--3--3--3----8-8-8--7-7-7--5-5-5--3---
 G------------------------------------------------
 D------0-----------------------------------------
 A--0-2-------------------------------------------
 E------------------------------------------------

     D             G          A         D
 e----2--2--2--2---7-7-7--5-5-5--3-3-3--2----2--2--2---2--
 B --3--3--3--3----8-8-8--7-7-7--5-5-5--3---3--3--3----3--
 G ----------------------------------------------------2--
 D-----------------------------------------------------0--
 A-----------------------------------------------------0--
 E-----------------------------------------------------0--


eSPERO Y SEA DE SU AGRADO Y QUE LE ENTIENDAN
Suggest correction
Give kudos to tab author, rate the tab!
1 2 3 4 5
comments
print report bad tab
guest
You may want to rate the tab now too:
select rating
Wanna post a correction for this tab? Suggest correction