Oops, an error
Loading. Please wait.

El Sonido De La Habitación Tab

16 views 1 this week
no commentswrite comment
1 2 3 4 5
3 more votes to show rating
add to favorites
×
Save as Personal and add changes to this tab that will be seen only by you. Learn more ›
×
You can save this tab as Personal to edit and correct it or add notes. All changes will be seen only by you. Learn more »
save as personal
new!
launch autoscroll
font size
0
reset
how to read this tab
guitar tuner
Autoscroll
slow
fast
+/-
esc
set tempo
stop
INTRO:

E|-----------------------------------|
B|-----------------------------------|
G|-----------------------------------|
D|-5---------------------------------|   1 GUITARRA INTRO
A|-3-(x5)---3---------5--------------|
E|----------1-(x3)----3-(x2)---------|
                                         2 GUITARRA INTRO
E|----------------------------------|----------------------------------|
B|-5-5-5-5-5~--3-----3--5-----------|-5-5-5-5-5~--3-----3--------------|
G|----------------5-----------------|----------------5-----5-----------|
D|----------------------------------|----------------------------------|
A|----------------------------------|----------------------------------|
E|----------------------------------|----------------------------------|

E|----------------------------------|-12-12-12-12----10----------------|
B|-5-5-5-5-5~--3-----3--5-----------|--------------------12--10--12~---|
G|----------------5-----------------|----------------------------------|
D|----------------------------------|----------------------------------|
A|----------------------------------|----------------------------------|
E|----------------------------------|----------------------------------|


  C5                           G5
Comienza otra historia, es otra historia
 A5                 F5
No es lo que puedes ver en tu memoria
 A5               F5
Es lo que puedes ver en el televisor
C5              G5
Estas conmigo y ya es muy tarde
A5                   F5           G5
Te doy mi abrigo o entramos a tu habitación....Ohhhohhhohohhoh
C5          G5
Sera mejor para los dos para los dos...

E|----------------------------------|
B|--5---7---9---10------------------|
G|--5---7---9---10------------------|  (2 Veces)
D|----------------------------------|
A|--3---5---7---8-------------------|
E|----------------------------------|

   C5            G5          A5                G5
Y vamos vamos a ese lugar y cierra cierra la puerta
        [ch]F5                                     G5[/ch]
que no quiero dejar escapar el sonido de la habitación...OuoOOOO
   C5            G5            A5                  G5
Y vamos vamos quiero correr,  no hay nada mas grato que verte sonreír
  F5                             G5
cuando todo el mundo esta a tus pies
     C5                     G5                       A5
Yo quiero que me digas que estas comprometida y que todo lo que
       F5
toque será
                  C5     G5           A5      [ch]F[/ch]
Porque lo quieres así, apaguemos las luces... Ja que sorpresa...

                                              C5
Y encendamos las velas, quiero que esto sea romántico
E|-----------------------------------|
B|-----------------------------------|
G|-----------------------------------|
D|-5---------------------------------|
A|-3-(x5)---3---------5--------------|
E|----------1-(x3)----3-(x2)---------|


          G5
Quiero despertar y tenerte Y
        A5                      F5                 G5
Que me mires cuando mires y me digas lo que quiero oír

   C5                G5       A5               G5
Y vamos vamos a ese lugar y cierra cierra la puerta
        [ch]F5                                  G5[/ch]
que no quiero dejar escapar el sonido de la habitación...OUOOOOO

   C5           G5             A5               G5
Y vamos vamos quiero correr,  no hay nada mas grato que verte sonreír
  F5                             G5
cuando todo el mundo esta a tus pies

E|----------------------------------|
B|--5---7---9---10------------------|
G|--5---7---9---10------------------|  (2 Veces)
D|----------------------------------|
A|--3---5---7---8-------------------|
E|----------------------------------|

OOOOOO OOOUUOOOOO
OOOOOO OOOUUOOOOO
OOOOOOUUUOOOOOOOO
OOOOOOOUOUOOUOUUUOOOOO

Solo:
E|----------------------------------------------------------------|
B|--------------------------------10------------------------------|
G|-----5--7--7/9--7--5---7----12~-----12--10--9--10~--10/12-------|
D|--7-------------------------------------------------------------|
A|----------------------------------------------------------------|
E|----------------------------------------------------------------|

E|-----------------------------------|
B|-----------------------------------|
G|--9--7--5--7--9~-----7~---5~-------|
D|-----------------------------------|
A|-----------------------------------|
E|-----------------------------------|

Y vamos vamos a ese lugar y cierra cierra la puerta
que no quiero dejar escapar
                   F5          G5
el sonido de la habitación...OuoOOOO

  C5            G5          A5                G5
Y vamos vamos a ese lugar y cierra cierra la puerta
        F5
que no quiero dejar escapar
                  G5
el sonido de la habitación...OuoOOOO
   C5            G5            A5                  G5
Y vamos vamos quiero correr,  no hay nada mas grato que verte sonreír
  F5                             G5
cuando todo el mundo esta a tus pies

E|----------------------------------|
B|--5---7---9---10------------------|
G|--5---7---9---10------------------|(2 Veces)
D|----------------------------------| Y TERMINA EN C5
A|--3---5---7---8-------------------|
E|----------------------------------|
Suggest correction
Give kudos to tab author, rate the tab!
1 2 3 4 5
comments
print report bad tab
guest
Wanna post a correction for this tab? Suggest correction