Oops, an error
Loading. Please wait.

Nomás Contigo Tab

93 views 1 this week
no commentswrite comment
1 2 3 4 5
3 more votes to show rating
add to favorites
launch autoscroll
font size
0
reset
how to read this tab
guitar tuner
×
Best way to learn
"Nomás Contigo"
Autoscroll
slow
fast
+/-
esc
set tempo
stop
Por Josué Manuel Ramírez Aldama
Dudas y comentarios en : josue_mramrez_aldama@

Esta canción la esuché por primera vez, en uno de esos minidiscos
de acetato creo que ya ni  los fabrican.

La canción inicia con un bajeo, que, no estoy seguro si se utiliza
un bajo de 5 cuerdas o de 4, pero al  parecer es esta es la figura
que hace y la canción se acompaña de un piano,que igual y se puede
imitar arpegiando los acordesen ascendente desde Mi Menor hasta la
cuerda de Re

-------------------------------------------------------------------

I N T R O

(00:00)

A |-----1-------|
E |-0-3---3-0---|


Aquí entra la guitarra con un riff que se repite en algunas partes
de la canción
------------------------------------------------------------------

(00:01)

Se usan los acordes de F#m - Bm - E (x2)

e|---------------------------------------------------|
B|-12b-12b-12b-10------10------10-----10-12--12b-12--|
G|----------------9-11----9-11----11-----------------|
D|---------------------------------------------------|
A|---------------------------------------------------|
E|---------------------------------------------------|

e|------------------------------------|
B|---12b-12b-12b-10-----10b12-(12)----|
G|-------------------9-------------9--|
D|------------------------------------|
A|------------------------------------|
E|------------------------------------|

Al perecer otra guitarra toca lo mismo pero una  octava más agudo
y sería de la siguiente forma

e|--------------------------------------------------------|
B|--------------------------------------------------------|
G|-16b-16b-16b-14--------14--------14----14--16--16b--16--|
D|----------------14--16----14--16----16------------------|
A|--------------------------------------------------------|
E|--------------------------------------------------------|

e |--------------------------------------|
B |--------------------------------------|
G |---16b-16b-16b-14-----14b16--(16)-----|
D |-------------------14--------------14-|
A |--------------------------------------|
E |--------------------------------------|


(00:26)

         A
Eso que llaman amor
        F#m
Mi corazón lo sintió
          Bm     E
Nomás contigo

          Bm
A nadie puedo querer
            E
Con nadie puedo yo estar
          A       A7
Nomás contigo

  D                   Dm
Quiero que vuelvas a mí
  A             F#m
Yo necesito de tí
Bm                 E
Es tan difícil vivir
          A   A7
Sin tu cariño

 D               Dm
Ven a calmar mi dolor
 A                   F#m
Ven a mis noches de amor
  Bm                  E
Quiero sentirte otra vez
  Bm            E
Como la última vez
          A
Nomás contigo


(01:38)

F#m - Bm - E

e|---------------------------------------------------|
B|-12b-12b-12b-10------10------10-----10-12--12b-12--|
G|----------------9-11----9-11----11-----------------|
D|---------------------------------------------------|
A|---------------------------------------------------|
E|---------------------------------------------------|

e|------------------------------------|
B|---12b-12b-12b-10-----10b12-(12)----|
G|-------------------9-------------9--|
D|------------------------------------|
A|------------------------------------|
E|------------------------------------|


(01:51)

           A
Ya muchas bocas besé
         F#m
Pero tambien comprobé
              Bm   E
Que no es lo mismo

             Bm
Por que sin tí descubrí
           E
Que no me siento feliz
             A    A7
Si no es contigo


   D                  Dm
Quiero que vuelvas a mí
 A             F#m
Yo necesito de tí
Bm                  E
Es tan difícil vivir
          A   A7
Sin tu cariño

 D               Dm
Ven a calmar mi dolor
 A                   F#m
Ven a mis noches de amor
  Bm                  E
Quiero sentirte otra vez
  Bm            E
Como la ultima vez
          A
Nomás contigo

F#m  Bm  E


e|---------------------------------------------------|
B|-12b-12b-12b-10------10------10-----10-12--12b-12--|
G|----------------9-11----9-11----11-----------------|
D|---------------------------------------------------|
A|---------------------------------------------------|
E|---------------------------------------------------|

e|------------------------------------|
B|---12b-12b-12b-10-----10b12-(12)----|
G|-------------------9-------------9--|
D|------------------------------------|
A|------------------------------------|
E|------------------------------------|

          A
Nomás contigo
          A
Nomás contigo
          A
Nomás contigo


Y la canción termina en Fade Out o igual y se puede arpegiar la última
sucesión de acordes y queda bien

Bueno, este Tab se lo  dedico  a mi Mamá,  Mi papá,  Mis hermanos y a mi
novia Erika, que saben que lo que hago es por inspiración de todos ellos.
Y también a todos los que como yo, se aventuran, aún con muy poco talento
a extender el arte.
Suggest correction
Give kudos to tab author, rate the tab!
1 2 3 4 5
comments
print report bad tab
guest
You may want to rate the tab now too:
select rating
Wanna post a correction for this tab? Suggest correction