Oops, an error
Loading. Please wait.

Loco Extraño Tab

22 views 1 this week
no commentswrite comment
1 2 3 4 5
3 more votes to show rating
add to favorites
launch autoscroll
font size
0
reset
how to read this tab
guitar tuner
×
Best way to learn
"Loco Extraño"
Autoscroll
slow
fast
+/-
esc
set tempo
stop
Intro x 4


E||--------------|-----------------|-----------------|-----------------|
B||--------------|-----------------|-----------------|-----------------|
G||--------------|-----------------|--6--8-----------|-----------------|
D||--6--8-----4--|--8-----10----6--|--------6--------|--6-----8-----4--|
A||--------4-----|-----6-----6-----|-----------4--8--|-----8-----4-----|
E||--------------|-----------------|-----------------|-----------------|

(El intro se acaba hasta el segundo verso)


(Durante los versos se encuentra un pequeño riff
E||-1------------|
B||----2--2------|
G||----------1---|
D||--------------|
A||--------------|
E||--------------|


Verso 1

F#                     G#
Quisiera poder explicar
                     Fm
Como me pude enamorar
                          F#
De alguien que tan solo es
                          F#
La voz la letra y nada mas


Verso 2

                               G#
Tal vez me has hecho comprender
                         Fm
Que sin tocarte puede ser
                             F#
La historia de un amor que se
                        D#m
nos alimenta al corazón


Precoro

           G#  Fm                 A#m       Cm
Y tú me das       las ganas de volver a empezar
      C#         Fm   D#m
De volver a entregarme
         G#
Y tú me das las palabras que
Gritaran muy fuerte un yo te amo


Coro

C#-Cm-A#m         G#            D#m
Soy        quien vino a hacerte sonreír
                   F#            G#
Quien vino a ser parte de ti un loco extraño
C#-Cm-A#m      G#         D#m
Soy       tu idea y tu imaginación
              F#         G#
Tu vaga idea del amor y abre tus brazos.

Fm      F#
Y podre darte un poco más de todo
Fm      F#                           G#
Cuidaré cada instante que sea de los dos, tu y yo.


Intro x 4


E||--------------|-----------------|-----------------|-----------------|
B||--------------|-----------------|-----------------|-----------------|
G||--------------|-----------------|--6--8-----------|-----------------|
D||--6--8-----4--|--8-----10----6--|--------6--------|--6-----8-----4--|
A||--------4-----|-----6-----6-----|-----------4--8--|-----8-----4-----|
E||--------------|-----------------|-----------------|-----------------|

(Se acaba hasta el cuarto verso y el riff es el mismo)


Verso 3

F#                          G#
Y aunque tal ves nunca te vi
                      Fm
Yo se que vivo para ti
                      F#
Lo supe desde que nací
                          F#
lo supe y ahora estoy aquí


Verso 4
                            G#
El tiempo se tardo en llegar
                      Fm
Quizá nos hiso esperar
                     F#
Y mira que casualidad
                            D#m
Mucho gusto yo te voy a amar


Precoro

Coro x 2
Suggest correction
Give kudos to tab author, rate the tab!
1 2 3 4 5
comments
print report bad tab
guest
You may want to rate the tab now too:
select rating
Wanna post a correction for this tab? Suggest correction