Oops, an error
Loading. Please wait.

Yo Lo Quería Bass

by Marisol
8 views 1 this week
no commentswrite comment
1 2 3 4 5
3 more votes to show rating
add to favorites
launch autoscroll
font size
0
reset
guitar tuner
×
Best way to learn
"Yo Lo Quería"
Autoscroll
slow
fast
+/-
esc
set tempo
stop
tablatura de fernando olivera
nexos_slash_20@
cualquier consulta clases
el salseo escuchenla bien para que puedan
sacarla igual  un saludo a orquesta nexos

intro:

   Gm      Gm     F     F      Eb     F       Gm
G-------------------------------------------------------->
D--------------------------------8----------------------->
A------5-------5----0-3---0-3--6---6--8---8---------5---->
E-3--6----3--6----1-----1---------------8-----3--6------->

areglo        Gm        Gm      F        F      Eb
G-------------------------------------------------------->
D--5-5--------------------------------------------8------>
A------5------------5--------5----0--3----0--3--6---6---->
E--------6-5---3--6-----3--6----1-------1---------------->

  F         Gm             Eb     F         /PARADA////
G--------------------------------------------------------
D----------------------------8---------------------------
A--8----8--------5--10--8--6---6--8----8-----------------
E-----8-----3--6---------------------8------3--3--3-3-3--

PARTE SALSIDADA
 Gm   F     F     Gm     Gm     F    F    Gm      Gm
G--------------------------------------------------------
D-----------3-----------5------------------------5-------
A---5---3-3---3-3---5-5---5-5----3-3---3-3---5-5----5-5--
E-3---1-----------3------------1-----1-----3------------1
   F/A       Gm     Gm/Bb F   F       Gm       /SUBIDA/
G------2-----------3-------------------------------------
D----3---3-------5---5---------3---3------5--------------
A--3-------3---5-------5---3-3---3------5-----5----------
E------------3-----------1------------3---------8-6-5----

VERSO:
  Gm       Gm     Bb      F     F        Eb      Eb
G-------------------------------------------------------
D-----------------------------10-----------8------------
A------5-------5----5--8--8------8---8---6-------6---6--
E-3--6----3--6----6---------8------8---------6-----6----
   F     F               1 VUELTA   2 VUELTA
G-----------------------/---------/---------------------
D-----3-----------------/---------/--5------------------
A---3---------------5---/-5-------/----5----------------
E-1-----1-2-3--3--6-----/---8-6-5-/------6-5------------

CORO:
 Gm      Gm        Eb      Eb      Dm      Dm
G-------------------------------------------------------
D---------------------8-------8---------7-------7-------
A------5-------5---6-------6-------5--8----5--8---------
E-3--6----3--6----------6-------6-----------------------

  Eb      Eb      Bb      F     F      Gm       Gm
G--------------------------------------------------------
D----8------------------------3-----------------5-5------
A--6------6--5------5--8----3---------------5-------5----
E------6-------8--6-------1-----1-2-3--3--6-----------6-5
 Gm       Gm       Eb       / areglo   /    Dm
G-------------------------------8--7----------------------
D---------------------8-------8------7------------7------
A------5-------5---6-------6-----------8---5---8----------
E-3--6----3--6----------6---------------------------------

   Eb    Eb      Bb       F     F      Gm
G--------------------------------------------------------
D----8------------------------3-----------------5-5------
A--6------6--5------5--8----3---------------5-------5----
E------6-------8--6-------1-----1-2-3--3--6-----------6-5

SE REPITE TODO HASTA ESTA PARTE

SALSEO:
 Gm   F   F   Gm   Gm   F     F  Gm    Gm
G----------------------------------------------------
D---------3-------5---------3----------5-------------
A---5---3---3---5---5-5---3---3----5-5---5--5--------
E-3---1-------3---------1-------3--------------1-----
   F   F    Gm   Gm  F   F        Gm    /SUBIDA/
G----------------------------------------------------
D------3---------5---------3---3-----5--5------------
A--3-3---3-3---5---5---3-3---3-----5------5----------
E------------3-------1-----------3----------6-5------

CORO:

FINAL:

Gm   F   F   Gm   Gm   F     F  Gm    Gm
G----------------------------------------------------
D---------3-------5---------3----------5-------------
A---5---3---3---5---5-5---3---3----5-5---5--5--------
E-3---1-------3---------1-------3--------------1-----
   F    F     Gm  Gm  F   F       Gm    Gm      C
G-------------------------------------------------------
D------3---------5---------3---3------5-----5-----------
A--3-3---3-3---5---5---3-3---3------5-----5-----3-3-3---
E------------3-------1------------3-----3---------------
Suggest correction
Give kudos to tab author, rate the tab!
1 2 3 4 5
comments
print report bad tab
guest
You may want to rate the tab now too:
select rating
Wanna post a correction for this tab? Suggest correction