Oops, an error
Loading. Please wait.

Dame La Razón Chords

496 views 3 this week
no commentswrite comment
1 2 3 4 5
3 more votes to show rating
add to favorites
launch autoscroll
font size
0
reset
transpose
0
reset
display chords
guitar tuner
Autoscroll
slow
fast
+/-
esc
set tempo
stop
Help us to improve Ultimate-Guitar.com Take our survey!
×
Intro:

|-------------------|----------------------|
|-------------------|----------------------|
|-------------------|--7--7--7----7--7--7--|
|--7--7----7--7--7--|--7--7--7----7--7--7--|
|--7--7----7--7--7--|--4--4--4----4--4--4--|
|--5--5----5--5--5--|----------------------|

|----------------------|-------------------------|
|----------------------|-------------------------|
|--7--7--7----7--7--7--|--7--7--7----4--4--7--7--|
|--7--7--7----7--7--7--|--7--7--7----5--5--7--7--|
|--5--5--5----5--5--5--|--5--5--5----------------|
|----------------------|-------------------------|


Dame un respiro
Dame el aliento
Siéntate cerca
Dime que sí

Hazme guirnaldas
Con mil palabras
Dame una excusa
Quiero creer


Dame razones
Para olvidarlas
Mueve mi falda
Dame un porqué

Dame un regalo
Envenenado
Dame tormentas
Déjame arder


D              E
 Dame puertas abiertas
        F#m
Camas desechas
         D
Pasos perdidos
               E
Silencio en la piel


D              E
 Dame puertas abiertas
        C
Camas desechas
                E
Quítame el sentido
Dame la razón


Dame la espalda
Dame un anzuelo
Toma las riendas
Pierde el control

Dame ventaja
Tómate un tiempo
Mueve mi mundo
Quiero caer

Saludos mi msn es qiqe_maiden@
Suggest correction
Give kudos to tab author, rate the tab!
1 2 3 4 5
comments
print report bad tab
guest
You may want to rate the tab now too:
select rating
Wanna post a correction for this tab? Suggest correction