Oops, an error
Loading. Please wait.

Trivial Polonio Tab

97 views 6 this week
no commentswrite comment
1 2 3 4 5
3 more votes to show rating
add to favorites
launch autoscroll
font size
0
reset
how to read this tab
guitar tuner
Autoscroll
slow
fast
+/-
esc
set tempo
stop
Help us to improve Ultimate-Guitar.com Take our survey!
×
Intro:
Bmaj7aj7(#11)   F#maj7  C#      F#6/C#
e|-------1-2-4------4---------------4-|
B|-----4--------6-------6---6p4-4---6-|
G|---3----------6---6---6---6p4-3-----|
D|--------------4-----4-3---------4---|
A|-2--------------4-------4-----4-----|
E|------------------------------------|
Bmaj7aj7(#11)   F#maj7  Cm11   Bbm11
e|-------1-2-4------4-------4---------|
B|-----4--------6-------6---6-------9-|
G|---3----------6---6---5------88---8-|
D|--------------4-----4-3------88-----|
A|-2--------------4-------3----66-----|
E|--------------------------------6---|

Verso 1:
Bmaj7aj7(#11)  F#maj7  C#      F#6/C#
e|-------1-2-4-----4-------4-------4--|
B|-----4-------6-------6---6---4---6--|
G|---3---------6---6---6---6---3------|
D|-------------4-----4-3---------4----|
A|-2-------------4-------4-----4-----4|
E|------------------------------------|
Bmaj7aj7(#11)   F#maj7  Cm11   Bbm11
e|-------1-2-4-----4-------4----------|
B|-----4-------6-------6---6-------9--|
G|---3---------6---6-----------8---8--|
D|-------------4-----4-3-------8------|
A|-2-------------4-------3---3-6------|
E|-------------------------------6---6|

Verso 2:
   D#m   G#        G#m7     Esus2
e|-6--6-------4----4--4-4---7--7------|
B|-7--7-------4----4--4-4---7--9------|
G|-8--8-------5----4--4-4---9--9------|
D|--------------6---------------------|
A|(6)-----------------6-6---7---------|
E|-------4--4------4------------------|

Verso 3
   Dmaj9Em7         A7/E      Dmaj7
e|-0-0----0----0----0----0----2---2---|
B|-3-3----3----3----2----2----2---2---|
G|-2-2----0----0----0----0----2---2---|
D|-0----2----2---2-----2---2----0---0-|
A|------------------------------------|
E|------------------------------------|
   F#m7       Db(add2) G#m7     F#m7
e|-------9--------9-------------------|
B|-10---10----9---9----12--12---10----|
G|--9----9----8---8----11--11----9----|
D|-11------------------13--13---11----|
A|----9----9--8-8---8-----------(9)---|
E|------------------------------------|

Verso 1b
Bmaj7aj7(#11)   C#          F#6/C#
e|---------------9--------------------|
B|---------------9----------------4---|
G|--------------10----------------3---|
D|--------------------------------4---|
A|--------------------------4---4-----|
E|--77--------------------------------|
Bmaj7aj7(#11)         F#maj7
e|------------------------------------|
B|-----4--------------------2-4-------|
G|-----3------------------3-----------|
D|----------------------4-------------|
A|-----2--------------4---------------|
E|------------------------------------|
      C#     F#6/C#
e|------4-----------------------------|
B|------6----4------------------------|
G|------6----3------------------------|
D|-----------4------------------------|
A|----4------4------------------------|
E|------------------------------------|
Bmaj7aj7(#11) F#maj7   Bbm11
e|----------------------------4-------|
B|-4----------2-----------4---2-------|
G|-3----------3----------3------------|
D|----------------------1-------------|
A|-2-------------------1--------------|
E|------------------------------------|

Final
Bmaj7aj7(#11)   F#maj7  C#      F#6/C#
e|-------1-2-4------4---------------4-|
B|-----4--------6-------6---6---4---6-|
G|---3----------6---6---6---6---3-----|
D|--------------4-----4-3---------4---|
A|-2--------------4-------4-----4-----|
E|------------------------------------|
Bmaj7aj7(#11)   F#maj7
e|-------1-2-4--------------------4/6-|
B|-----4--------6---4---6----4--------|
G|---3----------6---6---6----6----0---|
D|--------------4-------4-------------|
A|-2--------------4----------4--------|
E|------------------------------------|


 BMaj7(#11) [x23342] - Si, fa#, re#, la# (Maj7), fa (#11)
 F#Maj7     [xx4321] - fa#, do#, la#, fa (Maj7)
 C#         [x43121] - do#, sol#, fa
 F#6/C#     [x4434x] - fa#, do# (tmb bajo), la#, re# (6)
 Cm11       [x33563] - do, mib, sol, fa (11)
 Bbm11      [x11341] - sib, fa, do#, mib (11)

 D#m        [x68876] - re#, la#, fa#
 G#         [466544] - sol#, re#, do
 G#m7       [464444] - sol#, re#, si, fa# (7m)
 Esus2      [x79977] - mi, fa# (sus2), si

 DMaj9      [xx0230] - re, fa#, la, mi (9)
 Em7        [022030] - mi, si, sol, re (m7)
 A7/E       [002020] - la, mi (tmb bajo), do#, sol (7)
 DMaj7      [xx0222] - re, fa#, la, do#
 F#m7       [242222] - fa#, do#, la, mi (7m)
 Db(add2)/F [141121] - reb, lab, fa (tmb bajo), mib (add2)
 GMaj7      [354433] - sol, re, si, fa# (Maj7)

-----------------------------------------------------------------

Intro

Verso 1 x2
íbamos entre espejismos respetando las señales
componiendo madrigales en semana de turismo
aprendiendo el catequismo que enseñan solo los viajes
esquivamos los peajes y así se leyó el destino:
Verso 2
llegarás a los corvinos recargarás tu voltaje

Intro

Verso 1
en el porche de un otoño de calor incoherente
los tornillos de mi mente los consigo en el polonio
tan veloz como un quelonio pasa paul por el sendero
como siempre tan austero con su musa ensimismado
Verso 2
yo los miro colocado colgando bajo el alero

Intro


Verso 3
cae el sol y se levanta y vuelve siempre que sale
nadie dude cuanto vale si a todos nos amamanta
Verso 1
seas bicho, seas planta para él no hay nada nuevo
yo solo le canto y pruebo este té que preparamos
Verso 2
lo que en el campo encontramos lo creó el sol con esmero

Intro

Verso 1b
y fui hasta el mar buscando rima cuando esto era un boceto
justo entonces llegó beto y presentó la turbina
Verso 1
hoy el agua está divina piensa el gallo en su veleta
y yo pienso en tu silueta y por todo lo que hemos pasado
Verso 2
ahora tus hombros quemados descansan en la loneta

Final

--------------

Tabulado a partir de los acordes de  y mi oido!

-By Luke
Suggest correction
Give kudos to tab author, rate the tab!
1 2 3 4 5
comments
print report bad tab
guest
You may want to rate the tab now too:
select rating
Wanna post a correction for this tab? Suggest correction