Oops, an error
Loading. Please wait.

Ave María Blues Tab

133 views 1 this week
no commentswrite comment
1 2 3 4 5
3 more votes to show rating
add to favorites
launch autoscroll
font size
0
reset
how to read this tab
guitar tuner
×
Best way to learn
"Ave María Blues"
Autoscroll
slow
fast
+/-
esc
set tempo
stop
   G/Am/F/G/Em/Am/F/C-D

E  ------------------------------------------------
B  ---10 12-12-10--10------------------------------
G  --------------12--12--10-12-12-10--10-----------
D  -12-----------------12-----------12---12-11-10-9
A  ------------------------------------------------
E  ------------------------------------------------

E  ------------------------------------------------
B  ---10 12-12-10--10------------------------------
G  --------------12--12--10-12-12------------------
D  -12-----------------12--------------------------
A  ------------------------------------------------
E  ------------------------------------------------

           G       Bm
   Dios te salve María,
          C        G
   llena  eres de gracia,
         C          G
   el Señor está contigo,
         Am         D7
   el Señor está contigo,
        G       Bm
   y bendita tú eres,
       C            G
   entre todas las mujeres
       C            G
   y bendito es el fruto
          Am              C
   de tu vientre (de tu vientre)
     D
   Jesús.


       F      C
   //:Santa Maria
             G
   Madre de Dios://
 Am           F
   Ruega por nosotros
        G
   pecadores,
 Am               F
   ahora y en la hora
              G
  de nuestra muerte, amén.
Am            C
   Ruega por nosotros
        G
   pecadores,
  F               C
   ahora y en la hora
              G
  de nuestra muerte, amén.


  G/Am/F/G/Em/Am/F/C-D

E  ------------------------------------------------
B  ---10 12-12-10--10------------------------------
G  --------------12--12--10-12-12-10--10-----------
D  -12-----------------12-----------12---12-11-10-9
A  ------------------------------------------------
E  ------------------------------------------------

E  ------------------------------------------------
B  ---10 12-12-10--10------------------------------
G  --------------12--12--10-12-12------------------
D  -12-----------------12--------------------------
A  ------------------------------------------------
E  ------------------------------------------------

              G         Bm
   Gloria al Padre y al Hijo,
          C       G
   y al Espíritu Santo,
         C            G
   como era en el principio,
           Am
   ahora y siempre,
              C
   por los siglos
              D7
   de los siglos.


       F      C
   //:Santa Maria
             G
   Madre de Dios://
 Am           F
   Ruega por nosotros
        G
   pecadores,
 Am               F
   ahora y en la hora
              G
  de nuestra muerte, amén.
Am            C
   Ruega por nosotros
        G
   pecadores,
  F               C
   ahora y en la hora
              G
  de nuestra muerte, amén.


  G/Am/F/G/Em/Am/F/C-D

E  ------------------------------------------------
B  ---10 12-12-10--10------------------------------
G  --------------12--12--10-12-12-10--10-----------
D  -12-----------------12-----------12---12-11-10-9
A  ------------------------------------------------
E  ------------------------------------------------

E  ------------------------------------------------
B  ---10 12-12-10--10------------------------------
G  --------------12--12--10-12-12------------------
D  -12-----------------12--------------------------
A  ------------------------------------------------
E  ------------------------------------------------

HOLA AMIGOS PUES AQUI MOLESTANDOLOS DE NUEVO, AQUÍ LES MANDO ESTE
GRAN CANTO DE NUESTRO AMIGO MARTIN VALVERDE ESPERO LES PARESCAN BIEN
LA PEQUEÑAS CORRECCIONES QUE LE HICE Y PUES AHÍ LES VA LA PARTE DEL
RIFF DE LA GUITARRA ELECTRICA, EL RIFF 3 VAREA UN POCO PERO AHÍ LES
DEJO LA BASE YA NADA MAS SAQUEN BIEN EL FINAL YO SE QUE USTEDES PUE-
DEN BUENO LOS DEJO Y ESTE CANTO SE LOS DEDICO A MIS AMIGOS DEL CORO
DE LUX-DEI CUALQUIER DUDA O PETICIÓN AHÍ ESTA MI CORREO
Pisti_ojo@ y mucha suerte
Suggest correction
Give kudos to tab author, rate the tab!
1 2 3 4 5
comments
print report bad tab
guest
You may want to rate the tab now too:
select rating
Wanna post a correction for this tab? Suggest correction