Oops, an error
Loading. Please wait.

Delante De Tí Bass Tab

13 views 1 this week
no commentswrite comment
1 2 3 4 5
3 more votes to show rating
add to favorites
launch autoscroll
font size
0
reset
guitar tuner
Autoscroll
slow
fast
+/-
esc
set tempo
stop
Help us to improve Ultimate-Guitar.com Take our survey!
×
A|5---5---5---5---5--5-0--0-0-|
 Delante de ti Dios poderoso

A|8--0--0-0--0--0--5-5--5-|
 toda rodilla se dobla

E|--8---8---8----8---8----2-2---2---2-2-|
 delante de ti, rey digno de majestad

E|-----3---3--3---3--3--3---5-5--5-| 
 los hombres levantan sus voces

A|5---5---5---5---5---5----0--0-0--0-0--0-|  
 Delante de ti Dios rey, cordero de Dios

A|8-8--0--0---0--5--5-5-|
 el universo se postra

A|2--2---2---2---2---2--2-2---2---2--2-2-|
 toda la creación haciendo sólo una voz
E|----3--3--3---3-3--3-3--3---3--3--3-5-5-5-|
 se escucha en la tierra como en el cielo


A|-8-8--8--8-8--8-8--5--5-5--|
 Gloria, alabanza y gratitud

A|-5--5--5-5-5-5---5-8-8-8-|    
 honor, fuerza y potencia

A|7--7-7-7-7--7--7-0-0-0-0-|
 por los siglos, a Dios  (BIS)


Delante de ti nos humillamos
frente a tu trono postrados
tu nos compraste, con tu sangre pagaste
por eso está el libro en tus manos
Delante de ti con el Espíritu
pues él nos hace tus hijos
en el corazón se oye un gemido inefable
que da toda la gloria a Cristo
Suggest correction
Give kudos to tab author, rate the tab!
1 2 3 4 5
comments
print report bad tab
guest
You may want to rate the tab now too:
select rating
Wanna post a correction for this tab? Suggest correction