Oops, an error
Loading. Please wait.

Discúlpeme Pero No Bass

11 views 1 this week
no commentswrite comment
1 2 3 4 5
3 more votes to show rating
add to favorites
launch autoscroll
font size
0
reset
guitar tuner
×
Best way to learn
"Discúlpeme Pero No"
Autoscroll
slow
fast
+/-
esc
set tempo
stop
primera                               DISCULPEME PERO NO

A|--------5-5--5-5----|
E|3--3--3---------3-3-|
 Discúlpeme pero no
   
A|----------5-5--5-5------|
E|3--3--3-----------3-3--3|
 no me hace falta una moda
  
A|----5-5--5--5-7-7-|
 para mi identidad
   
A|----3--3--3-3-------|
E|--------------3-3-3-|
 me visto de sincero
     
A|--------5-5--5--5-7-7-|
 y no me queda tan mal
   
A|----3--3-3--3-3------|
E|----------------3--3-|
 y traigo a la medida

A|-----5--5--5-----|
E|-------------3-3-|   
 mi autenticidad

segunda

A|------3--3----3---| 
E|---------------3--|
 Discúlpeme pero nO

A|-----------3---3--3-------|      
E|-3--3----3-----------3--3-|
 no me hace falta el dinero

A|-----5---5-----5-7--7|    
 para saber quien soy

A|-----3--3----3--3-------|
E|-------------------3--3-|   
 soy libre como el viento

A|-----5-5----5-7-7-|     
 y eso me hace feliz

E|----0--0-| 
 muy feliz
A|----------5-5---3-3-2-2---------|
E|5--5---5----------------5-5-3-3-|      
 y ¿a usted no?

(igual que primera)
Discúlpeme pero no
no me hace falta una regla
para con Dios hablar
somos muy amigos 
y nos gusta variar
y nos da buen resultado 
la sinceridad

(igual que segunda)
Discúlpeme pero no
no me hace falta un permiso 
para ponerme a amar
de eso si me sobra
y yo lo quiero entregar
sin calcular
y sin esperar

A|0------0----0-3-3--3---3--5--5-|
 Ah como se complican los hombres

A|-------------------------------|
E|---------3---3--3--5---5--7-7--|   
 de una tontera hacen una verdad

A|0----0---3-3---3--5-5-5-|
 a todo ponen condiciones

A|-----------------------------
E|--------------3---3--5---5---7-7--|     
 y ya nadie es libre si quiere amar

A|0----0----0-3-3---5-5-5-| 
 levanta tus alas y vuela

A|-3-3----3--5-5--5--5---------3-3--|
E|---------------------3--3---3-----|   
 y ya date cuenta: todo es vanidad

A|--------------------5-5---3-3-2-2---------|
E|5--5---5---5--5---5---------------5-5-3-3-|   
 Ay lucha por tu dignidad u uh

(igual que primera)
Discúlpeme pero no
no me hace falta un aplauso 
para sentirma bien
solo aquel que es inseguro 
necesita disfrazar
con un montón de halagos
si inseguridad

(igual que segunda)
Discúlpeme pero no
no me hace falta una prueba 
de virilidad
el tiempo me ha eseñado 
que uh hombre es aquel
que se conquista 
y que sabe ser fiel

(igual que primera)
Discúlpeme pero no
no le hago caso a fronteras
y odio la división
soy ciudadano del mundo
simplemente soy yo
y si eso le molesta
Discúlpeme por favor
Suggest correction
Give kudos to tab author, rate the tab!
1 2 3 4 5
comments
print report bad tab
guest
You may want to rate the tab now too:
select rating
Wanna post a correction for this tab? Suggest correction