Oops, an error
Loading. Please wait.

El Diario De María Tab

53 views 3 this week
no commentswrite comment
1 2 3 4 5
3 more votes to show rating
add to favorites
launch autoscroll
font size
0
reset
how to read this tab
guitar tuner
×
Best way to learn
"El Diario De María"
Autoscroll
slow
fast
+/-
esc
set tempo
stop
Intro: Am - A/D7 - C - F - Bb - E - Am - E/D


e|------------------3-1-0--------------------------------|
B|-3/5-3-1-0-0-0/1.-------3-3-3/5.--5/6-5-3--1-1/3...----|
G|-------------------------------------------------------|
D|-------------------------------------------------------|
A|-------------------------------------------------------|
E|-------------------------------------------------------|

e|---5----------------------------|
G|------7-5-4-7-5-4-5-7.--(2-2/4)-|
D|-6------------------------------|
A|--------------------------------|
E|--------------------------------|

         Am     A/D7              Dm
Te miro a los ojos y entre tanto llanto
        G      G7             C   C7
Parece mentira que te hallan clavado
              F     G             Em     Am
Que seas el pequeño al que he acunado
         Dm    G                 C     C7
Y que se dormía  tan pronto en mis brazos,
         F     G          Em     Am
El que se reía al mirar el cielo
        Dm       G         C        E/D
y cuando rezaba  se ponía serio.(Riff1)

Riff1:

e|---------------------------|
B|-1-3-3/5-3-5-5/6-5-3-5...--|
G|---------------------------|
D|---------------------------|
A|---------------------------|
E|---------------------------|


             Am  A/D7       Dm
Sobre ese madero, veo al pequeño
              G       G7              C     C7
Que entre los doctores hablaba en el templo
                 F  G              Em      Am
Que cuando pregunté, respondió con calma
           Dm     G              C      C7
Que de los asuntos de Dios se encargaba,
            F  G                 Em    Am
Ese mismo niño, el que está en la cruz
              Dm     G            C    E/D
El Rey de los hombres se llama Jesús

Solo: Am - A7 - Dm - G - C - Am - E/D

e|--------------------------------------------------------|
B|-----5---5-5/6-5-6-5---------------------5-6-6/8-5-5.---|
G|-5-7---7-------------7-5-4-7-5-5.-4-5-7-----------------|
D|--------------------------------------------------------|
A|--------------------------------------------------------|
E|--------------------------------------------------------|

e|---------------------------------------------------|
B|---------5--5/6------------------------------------|
G|---4-5-7---------7-7.--7/9/5-7/9--7-5-7-5----------|
D|-7----------------------------------------7.-(2/4)-|
A|---------------------------------------------------|
E|---------------------------------------------------|

              Am       A/D7            Dm
Ese mismo hombre(Riff2), ya no era un niño(riff3)
            G      G7         C    C7
Y en aquella boda le pedí más vino(riff4)
          F    G                      Em     Am
Que dio de comer(Riff5) a un millar de gente(Riff6)
            Dm       G             C        C7
Y a pobres y enfermos(Riff7)los miró de frente(Riff8)
              F     G             Em    Am
Rió con aquellos(Riff9) a quienes más quiso(Riff10)
              Dm       G             C      E/D
Y lloro en silencio(Riff11) al morir su amigo

Riff2:
e|--------------|
B|--------------|
G|---4-5-6-6/8--|
D|-7------------|
A|--------------|
E|--------------|

Riff3:
e|--------------|
B|-5-6-8-8/10-8-|
G|--------------|
D|--------------|
A|--------------|
E|--------------|

Riff4
e|---6--5--3--1--0-|
B|-5----6--5--3--2-|
G|-----------------|
D|-----------------|
A|-----------------|
E|-----------------|

Riff5
e|-------------|
B|-6-8-8/10-8--|
G|-------------|
D|-------------|
A|-------------|
E|-------------|

Riff6
e|-------------|
B|-5----3--1---|
G|-7/4--4--2---|
D|-------------|
A|-------------|
E|-------------|


Riff7
e|----------------|
B|-----5--5-------|
G|-----0--0--7-7.-|
D|-7-7------------|
A|----------------|
E|----------------|

Riff8
e|-------------------|
B|-------------------|
G|-----4-5-6-6/9...--|
D|---7---------------|
A|-9-----------------|
E|-------------------|

Riff9
e|-8----------------|
B|---10-------------|
G|------10-8/9-7-7.-|
D|------------------|
A|------------------|
E|------------------|

Riff10
e|-------------|
B|-----5--3--1-|
G|-7-4-4--4--2-|
D|-------------|
A|-------------|
E|-------------|

Riff11
e|---------------|
B|---------------|
G|---4-5-7-7/9-7-|
D|-7-------------|
A|---------------|
E|---------------|

           Am  A/D7            Dm
Ya cae la tarde, se nublan los cielos
           G   G7           C    C7
Pronto volverás a tu padre eterno.
          F     G            Em    Am
Duérmete pequeño, duérmete mi niño
             Dm        G         C    C7
Que yo te he entregado todo mi cariño
         F      G      Em    Am
Como en Nazaret aquella mañana
            Dm    G
He aquí tu sierva,
                Am - A/D7 - C - F - Bb - G - Am - C - F - C
he aquí tu esclava. (con el final)

Final:
e|-----------------------------------------------------------------------|
B|------------6/8-6-5----------5/6-5-------------5-6-8-8/10.-5/6-5-------|
G|---4-5-5/7----------7-7-7/9--------7-5-5/7...--------------------4/5---|
D|-7---------------------------------------------------------------------|
A|-----------------------------------------------------------------------|
E|-----------------------------------------------------------------------|


A/D7= 030200
E/D= 031220
Suggest correction
Give kudos to tab author, rate the tab!
1 2 3 4 5
comments
print report bad tab
guest
You may want to rate the tab now too:
select rating
Wanna post a correction for this tab? Suggest correction