Oops, an error
Loading. Please wait.

Método Para Olvidar Tab

19 views 3 this week
no commentswrite comment
1 2 3 4 5
3 more votes to show rating
add to favorites
launch autoscroll
font size
0
reset
how to read this tab
guitar tuner
Autoscroll
slow
fast
+/-
esc
set tempo
stop
Help us to improve Ultimate-Guitar.com Take our survey!
×
Te Transformas En Mañanas?

---1-----1-----------------------------------3--
-----3-------1-----6------6--------3-----3---3--
-------3---3---------7--------5------3-----3----
-----------------------7----7----------5--------
-1---------------5------------------------------
---------------------------------3--------------

Min 0:46               Min 1:34
----------------10--   -----------------
---8-7--------------   ---------7-10/0--
-----------5/11-----   -8/7/5-----------
-7-----5/7----------   -------7---------
--------------------   -----------------
--------------------   -----------------

Solo:
----------------------------------------------------------------
----------------------------------------------------------------
-5/7--7-7/5---5-7--7-7/5---7--7-7/5---7/8--8/7-7--7-7/5---5*----
------------8------------8----------8-------------------8----8--
----------------------------------------------------------------
----------------------------------------------------------------

-------11------------------------------------------9/10-------
-5/7-8----8-7-7-8-7/8/7--------------------10-11--------11-7--
------------------------8-7-7-7/5---5-7--7-------7------------
----------------------------------8---------------------------
--------------------------------------------------------------
--------------------------------------------------------------

----------------------------------------------------------
----------------------------------------------------9/10--
-10-10-8-8-5-5-5/7--7-7/5---5-7----3-5-6/5/3---3-7--------
--------------------------8------5-----------5------------
----------------------------------------------------------
----------------------------------------------------------
Suggest correction
Give kudos to tab author, rate the tab!
1 2 3 4 5
comments
print report bad tab
guest
You may want to rate the tab now too:
select rating
Wanna post a correction for this tab? Suggest correction