Oops, an error
Loading. Please wait.

1256 Días Tab

12 views 1 this week
no commentswrite comment
1 2 3 4 5
3 more votes to show rating
add to favorites
launch autoscroll
font size
0
reset
how to read this tab
guitar tuner
Autoscroll
slow
fast
+/-
esc
set tempo
stop
Help us to improve Ultimate-Guitar.com Take our survey!
×
(1):
  [ch]A           SI[/ch]
E----0---0--0-------2--4--2---
B----2---0--2-------4--4--4---
G----2---2--2-------4--4--4---
D---2--2---2-------2--2--2----
A-0---------------2-----------
E-----------------------------

(2):
  [ch]Gm7[/ch]          [ch]C#m[/ch]
E----------------------/
B----7-7-7-----5--4--5-/
G----4-4-4-----6--6--6-/
D----6-6-6----6--6--6--/
A---4-------4----------/
E-4--------------------/

LA     002220    SI    224442    
Solm7  466474    Do#m  446654

Intro:
 [ch]A           SI[/ch]            [ch]Gm7[/ch]       [ch]C#m[/ch]
E---0--0--0----2--4--2---------------------------/
B---2--0--2----4--4--4----7-7-7----5--4--4/5\4---/
G---2--2--2----4--4--4----4-4-4----6--6--6-----6-/
D--2--2--2----2--2--2-----6-6-6---6--6--6--------/
A-0----------2-----------4-------4---------------/
E-----------------------4------------------------/
 [ch]A              SI[/ch]
E---0--0--0----2--4--2-/
B---2--0--2----4--4--4-/
G---2--2--2----4--4--4-/
D--2--2--2----2--2--2--/
A-0----------2---------/
E----------------------/

(1)                                   
he pasado cuatro años navegando 
(2)
en la duda de callar o preguntar
(1)                                       
he hecho cuentas no es posible peor saldo 
(2)
no hubo intento y he perdido igual
(1)                                 
he querido quererte sólo como amiga 
(2)
pero aun no he aprendido a olvidarte
(1)                               
he hablado demasiado sin palabras 
(2)
mal exijo una respuesta por tu parte

(1) (2)  (1)

he vivido en el filo de este sueño 
por no dar la cara me tocó la cruz
he cambiado el vergel por el desierto 
de la flor pasé a esta duna sin lo azul
te he querido mucho más de lo posible 
he intuido en tu saliva un elixir
he soñado que a tu lado esta cama 
no era sólo un lugar para dormir

(1)

he leído en las líneas de tus manos 
la analgesia para esta soledad
he probado en noches deshabitadas 
el sabor de esta ausencia de metal
he sido carne del olvido he blasfemado contra cupido 
porque él sólo, sólo apuntó hacia mí.
He soñado que a tu lado esta cama 
no era sólo un lugar para dormir.

*Al final en lugar del último Do#m hace esto: 

    E------------4--/ (raspeo
    B------7-----7--/  hacia
    G------4-----4--/  arriba)
    D----6----6-----/ 
    A--7------------/
    E---------------/                   

Toda la canción es igual. Está muy bien y se aprende 
muy rápido. Me encaaaaaanta la letra. Además se canta 
en un tono muy bueno (ideal para ligar!! :-)). Esta es 
mi primera aportación, pero ya llegarán más(Silvio, 
Pedro Guerra, Sabina, Ismael Serrano, Tontxu...). 
Cualquier sugerencia: animalxpepi@
Suggest correction
Give kudos to tab author, rate the tab!
1 2 3 4 5
comments
print report bad tab
guest
You may want to rate the tab now too:
select rating
Wanna post a correction for this tab? Suggest correction