Oops, an error
Loading. Please wait.

Esperándote Bass Tab

version 1
version 1

Whole song

Interactive

11 views 1 this week
no commentswrite comment
1 2 3 4 5
3 more votes to show rating
add to favorites
launch autoscroll
font size
0
reset
guitar tuner
×
Best way to learn
"Esperándote"
Autoscroll
slow
fast
+/-
esc
set tempo
stop
Bueno esta es mi primer aporte a la  espero
que les guste saludos a Scorpiones Black de Nuevo Laredo
Tamahulipas mi banda jejejeje saludos a Fher,Roger y al
Lalo y pues aqui esta la rolia de masappan chida
espero que les guste


(((Intro con guitarra)))


[00:14]...Y estare aqui esperandote y sabras que tu....
G-------------------------------
D-------------------------------
A---------3-3-3-3-------0-0-0-0-  x2
E--1-1-1-1-------3-3-3-3--------

[00:28]
G----------------
D----------------
A----------0-----  x4
E--1-1-1-1---3---

[00:34]
G-------------------------------
D-------------------------------
A---------3-3-3-3-------0-0-0-0-  x1
E--1-1-1-1-------3-3-3-3--------

[00:41]...Quiero volver es inutil no puedo olvidar....
G-----------------------
D-----------------------
A--3-x8-----------------  x1
E------3-x8--1-x8--3x8--

[00:55]...Y estare aqui esperandote y sabras que tu....
G-------------------------------
D-------------------------------
A---------3-3-3-3-------0-0-0-0-  x2
E--1-1-1-1-------3-3-3-3--------

[01:09]
G----------------     G----------
D----------------     D----------
A----------0-----  x4 A--3~~~~~~-
E--1-1-1-1---3---     E----------

(Escuchen el ritmo en esta parte es muy facil)

[01:19]
G---------------------------
D---------------------------
A--3-x16--------------------  x1
E------ 3-x16--1-x16--3x16--

[01:33]...Volveras tu tambien recordaraaaas....
G-----------------------
D-----------------------
A--3~~~~----------------  x2
E-------3~~~~-1~~~~-----

[01:46]...Estare aqui esperandote y sabras que tu....
G-------------------------------
D-------------------------------
A---------3-3-3-3-------0-0-0-0-  x4
E--1-1-1-1-------3-3-3-3--------

[02:14]
G----------------     G----------
D----------------     D----------
A----------0-----  x4 A--3~~~~~~-
E--1-1-1-1---3---     E----------

Comentarios:
Ramon "Moncho"
monchoscorpion@
Suggest correction
Give kudos to tab author, rate the tab!
1 2 3 4 5
comments
print report bad tab
guest
You may want to rate the tab now too:
select rating
Wanna post a correction for this tab? Suggest correction