Oops, an error
Loading. Please wait.

Tu Que Pedirás Tab

version 1
version 1

Whole song

90 views 1 this week
no commentswrite comment
1 2 3 4 5
3 more votes to show rating
add to favorites
launch autoscroll
font size
0
reset
how to read this tab
guitar tuner
×
Best way to learn
"Tu Que Pedirás"
Autoscroll
slow
fast
+/-
esc
set tempo
stop
Te diré, una vez mas
lo que pido por tí cuando te vas

A                      C#m
Te recordaré, una vez mas
        Bm                    E
lo que pido por tí cuando te vas

       A                                            C#m
Yo pediré a la luna que te cubra por esas calles obscuras
                      Bm                    E
pediré al sol que te alumbre cuando no esté yo
       A                                            C#m
Yo pediré a los cuatro vientos que te manden mi pensamiento
                           Bm             E
pediré a la lluvia que te moje toda tu figura

              A
Y tu que pedirás
         C#m
que pediras
        Bm         E
Yo pediré una vez mas
              A
Y tu que pedirás
         C#m
que pediras
        Bm         E
Yo pediré una vez mas

e------------------------------------------------------------------
B------------------------------------------------------------------
G-55-7---8-8/11-11-9-7-9-7------------7-9/11---11-9-7-5------------
D-----5-------------------9-7--77-9-------------------------------
A------------------------------------------------------------------
E------------------------------------------------------------------

e-55-7---8-8/11-11-9-7-9-7------------7-9/11---11-9-7-5-9-7-5/11---
B-----5-------------------9-7--77-9--------------------------------
G------------------------------------------------------------------
D------------------------------------------------------------------
A------------------------------------------------------------------
E------------------------------------------------------------------


A                      C#m
Te recordaré, una vez mas
        Bm                    E
lo que pido por tí cuando te vas


              A
Y tu que pedirás
         C#m
que pediras
        Bm         E
Yo pediré una vez mas
              A
Y tu que pedirás
         C#m
que pediras
        Bm         E
Yo pediré una vez mas

       A                                            C#m
Yo pediré a la luna que te cubra por esas calles obscuras
                      Bm                    E
pediré al sol que te alumbre cuando no esté yo
       A                                            C#m
Yo pediré a los cuatro vientos que te manden mi pensamiento
                           Bm             E
pediré a la lluvia que te moje toda tu figura

              A
Y tu que pedirás
         C#m
que pediras
        Bm         E
Yo pediré una vez mas
              A
Y tu que pedirás
         C#m
que pediras
        Bm         E
Yo pediré una vez mas

Que no te vayas mas!!...
Suggest correction
Give kudos to tab author, rate the tab!
1 2 3 4 5
comments
print report bad tab
guest
You may want to rate the tab now too:
select rating
Wanna post a correction for this tab? Suggest correction