Oops, an error
Loading. Please wait.

Tu Que Pedirás Tab

version 2
version 2

Whole song

71 views 1 this week
no commentswrite comment
1 2 3 4 5
3 more votes to show rating
add to favorites
launch autoscroll
font size
0
reset
how to read this tab
guitar tuner
Autoscroll
slow
fast
+/-
esc
set tempo
stop
Help us to improve Ultimate-Guitar.com Take our survey!
×
Hola, aqui les dejo esta nueva version muy parecida a la anterior,
solo le cambie un pequeño remate, y la trasportación del solo de trompetas


Te diré, una vez mas
lo que pido por tí cuando te vas

A5                      C#5
Te recordaré, una vez mas
        B5                    E5
lo que pido por tí cuando te vas

       A                                            C#m
Yo pediré a la luna que te cubra por esas calles obscuras
                      Bm                    E
pediré al sol que te alumbre cuando no esté yo
       A                                            C#m
Yo pediré a los cuatro vientos que te manden mi pensamiento
                           Bm             E
pediré a la lluvia que te moje toda tu figura

              A
¿Y tu que pedirás?
         C#m
¿que pediras?
  C-C#m-Bm         E
Yo pediré una vez mas
              A
¿Y tu que pedirás?
         C#m
¿que pediras?
  C-C#m-Bm         E
Yo pediré una vez mas

e-------7-5-7-9-----7-5-9-7-5-------7-5-7-9-----7-5-7--
B---5-5---------5-5-----------5--5-5---------5-5-------
G------------------------------------------------------
D------------------------------------------------------
A------------------------------------------------------
E------------------------------------------------------


e-------7-5-7-9-----7-5-9-7-5-------7-5-7-9-----7-5-7-9-12
B---5-5---------5-5-----------5--5-5---------5-5----------
G---------------------------------------------------------
D---------------------------------------------------------
A---------------------------------------------------------
E---------------------------------------------------------


A5                      C#5
Te recordaré, una vez mas
        B5                    E5
lo que pido por tí cuando te vas


              A
¿Y tu que pedirás?
         C#m
¿que pediras?
  C-C#m-Bm         E
Yo pediré una vez mas
              A
¿Y tu que pedirás?
         C#m
¿que pediras?
  C-C#m-Bm         E
Yo pediré una vez mas

       A                                            C#m
Yo pediré a la luna que te cubra por esas calles obscuras
                      Bm                    E
pediré al sol que te alumbre cuando no esté yo
       A                                            C#m
Yo pediré a los cuatro vientos que te manden mi pensamiento
                           Bm             E
pediré a la lluvia que te moje toda tu figura

              A
¿Y tu que pedirás?
         C#m
¿tu que pediras?
        Bm         E
Yo pediré una vez mas
              A
¿Y tu que pedirás?
         C#m
¿tu que pediras?
  C-C#m-Bm         E
Yo pediré una vez mas

Que no te vaaayas maas
Suggest correction
Give kudos to tab author, rate the tab!
1 2 3 4 5
comments
print report bad tab
guest
You may want to rate the tab now too:
select rating
Wanna post a correction for this tab? Suggest correction