Oops, an error
Loading. Please wait.

Tu Que Pedirás Bass Tab

219 views 1 this week
no commentswrite comment
1 2 3 4 5
3 more votes to show rating
add to favorites
launch autoscroll
font size
0
reset
guitar tuner
×
Best way to learn
"Tu Que Pedirás"
Autoscroll
slow
fast
+/-
esc
set tempo
stop
Te diré, una vez mas
lo que pido por tí cuando te vas

  Te recordaré...
G|----------------------------------------------|
D|----------------------------------------------|
A|-------0-0-0000-0-0-0000---4-4-4444-4-4-4444--|
E|----------------------------------------------|

G|-----------------------------------------|
D|----------------------2-2-2222-2-2-2222--|
A|--2-2-2222-2-2-2222----------------------|
E|-----------------------------------------|


Yo pediré a la luna...
G|-------------------------------------------------------4---4---4---4--|
D|-----------------------6---6---6-------4---4---4---4-2---2---2---2----|
A|-------7---7---7---7-4---4---4---4-3-2---2---2---2--------------------|
E|-----5---5---5---5----------------------------------------------------|

Yo pediré a los cuatro...
G|-------------------------------------------------------4---4---4---4--|
D|-----------------------6---6---6-------4---4---4---4-2---2---2---2----|
A|-------7---7---7---7-4---4---4---4-3-2---2---2---2--------------------|
E|-----5---5---5---5----------------------------------------------------|

Y tu que pedirás...
G|-------------------------------------------------------4---4---4---4--|
D|-----------------------6---6---6-------4---4---4---4-2---2---2---2----|
A|-------7---7---7---7-4---4---4---4-3-2---2---2---2--------------------|
E|-----5---5---5---5----------------------------------------------------|

Y tu que pedirás...
G|-------------------------------------------------------4---4---4---4--|
D|-----------------------6---6---6-------4---4---4---4-2---2---2---2----|
A|-------7---7---7---7-4---4---4---4-3-2---2---2---2--------------------|
E|-----5---5---5---5----------------------------------------------------|

G|-------------------------------------------------------4---4---4---4--|
D|-----------------------6---6---6-------4---4---4---4-2---2---2---2----|
A|-------7---7---7---7-4---4---4---4-3-2---2---2---2--------------------|
E|-----5---5---5---5----------------------------------------------------|

G|-------------------------------------------------------4---4---4---4--|
D|-----------------------6---6---6-------4---4---4---4-2---2---2---2----|
A|-------7---7---7---7-4---4---4---4-3-2---2---2---2--------------------|
E|-----5---5---5---5----------------------------------------------------|


  Te recordaré...
G|----------------------------------------------|
D|----------------------------------------------|
A|-------0-0-0000-0-0-0000---4-4-4444-4-4-4444--|
E|----------------------------------------------|

G|-----------------------------------------|
D|----------------------2-2-2222-2-2-2222--|
A|--2-2-2222-2-2-2222----------------------|
E|-----------------------------------------|

Y tu que pedirás...
G|-------------------------------------------------------4---4---4---4--|
D|-----------------------6---6---6-------4---4---4---4-2---2---2---2----|
A|-------7---7---7---7-4---4---4---4-3-2---2---2---2--------------------|
E|-----5---5---5---5----------------------------------------------------|

Y tu que pedirás...
G|-------------------------------------------------------4---4---4---4--|
D|-----------------------6---6---6-------4---4---4---4-2---2---2---2----|
A|-------7---7---7---7-4---4---4---4-3-2---2---2---2--------------------|
E|-----5---5---5---5----------------------------------------------------|

Yo pediré a la luna...
G|----------------------------------------------|
D|----------------------------------------------|
A|-------0-0-0000-0-0-0000---4-4-4444-4-4-4444--|
E|----------------------------------------------|

G|-----------------------------------------|
D|----------------------2-2-2222-2-2-2222--|
A|--2-2-2222-2-2-2222----------------------|
E|-----------------------------------------|

Yo pediré a los cuatro...
G|-------------------------------------------------------4---4---4---4--|
D|-----------------------6---6---6-------4---4---4---4-2---2---2---2----|
A|-------7---7---7---7-4---4---4---4-3-2---2---2---2--------------------|
E|-----5---5---5---5----------------------------------------------------|

Y tu que pedirás...
G|-------------------------------------------------------4---4---4---4--|
D|-----------------------6---6---6-------4---4---4---4-2---2---2---2----|
A|-------7---7---7---7-4---4---4---4-3-2---2---2---2--------------------|
E|-----5---5---5---5----------------------------------------------------|

Y tu que pedirás...
G|--------------------------------------------------------------|
D|-----------------------6---6---6-------4---4---4---4-------2--|
A|-------7---7---7---7-4---4---4---4-3-2---2---2---2------------|
E|-----5---5---5---5--------------------------------------------|

Que no te vayas mas!!...
G|-----------------------------------------|
D|-----------------------------------------|
A|-----------------------------------------|
E|---------------5///7/////9/////12/////9--|


Gracias
Suggest correction
Give kudos to tab author, rate the tab!
1 2 3 4 5
comments
print report bad tab
guest
You may want to rate the tab now too:
select rating
Wanna post a correction for this tab? Suggest correction