Oops, an error
Loading. Please wait.

Mi Mami No Lo Hará Tab

41 views 1 this week
no commentswrite comment
1 2 3 4 5
3 more votes to show rating
add to favorites
launch autoscroll
font size
0
reset
how to read this tab
guitar tuner
×
Best way to learn
"Mi Mami No Lo Hará"
Autoscroll
slow
fast
+/-
esc
set tempo
stop
A#      D#         F#
 Puedo ver, puedo ver,
   C#
 no puedo encontrarte
A#      D#         F#
 Puedo ser, puedo hacer,
   C#
 no puedo alcanzarte
A#             D#
 Veo todo sin ver
                   F#
 y siento algo crecer,
   C#
 no puedo abarcarme
A#            F         C#       G#
 Hoy en encontré un juguete de verano
       A#           G# A#  C#-D#
 Aunque no quiero mostrarteló
           A#      F     C#
 Vos nunca lo sabrás, sabrás
          A#      F      C#
 Mi mami no lo hará, lo hará
          A#      F               C#
 Mi mami no lo hará, no lo hará ,lo hará
         A#  F  C#
 Mi mami no, lo hará

      F#         G#
E/-------------------------------------------
B/-----2-------------------------------------
G/-------3--------5------5-------------------
D/---4----------6---6--6---6-----------------
A/-------------------------------------------
e/-2----------4------------------------------

   Y cualquier cosa...

E/-------------------------------------------
B/-------------------------------------------
G/-4--3--1-----------------------------------
D/---------4---------------------------------
A/-------------------------------------------
e/-------------------------------------------

  me podrías mostrar...


      F#         G#
E/-------------------------------------------
B/-----2-------------------------------------
G/-------3--------5------5-------------------
D/---4----------6---6--6---6-----------------
A/-------------------------------------------
e/-2----------4------------------------------

   aunque un día...

E/-------------------------------------------
B/-------------------------------------------
G/-------------------------------------------
D/-------------------------------------------
A/-4--6--4------9--6-------------------------
e/-------------------------------------------

  estés en el aire....


      F#         G#
E/-------------------------------------------
B/-----2-------------------------------------
G/-------3--------5--------------------------
D/---4----------6---6------------------------
A/-------------------------------------------
e/-2----------4------------------------------

   Y cualquier cosa...

     Gb   C#  D#
 podrías arreglar
F#    G#
 Pero no
A#                D#
 Pero no puedo crecer
                     F#
 aunque no quiera crecer
       D#
 o no puedo

 A# F C#

E/-------------------------------------------
B/-------------------------------------------
G/---7p8--10---8-7-8-7----8p7-10-8--7--8-7---
D/-8-------------------8---------------------
A/-------------------------------------------
e/-------------------------------------------

A#         F            C#
 Abrazame así ,abrazame fuerte (Siento venir el huracán)
D#         Bb           Ab
 Abrazame así ,abrazame fuerte


E/---3p4-6--4-3-4-3------3p4-6--4-3-4-3------
B/-4----------------4------------------------
G/-------------------------------------------
D/-------------------------------------------
A/-------------------------------------------
e/-------------------------------------------

D#         Bb   C#        G#
 Abrazame así, Abrazame, Abrazame!

D# A# A F#

Solo:

E/-10-10---10-10-----10-10-------------------
B/------10-----------------10-10-------------
G/-------------------------------------------
D/-------------------------------------------
A/-------------------------------------------
e/-------------------------------------------

E/-10-10-----17-----10-10--------------------
B/-------10----------------10s8-10---10-9--3-
G/-------------------------------------------
D/-------------------------------------------
A/-------------------------------------------
e/-------------------------------------------

 D#

 D# A F# A  x2

D#         G#
 Puedo crecer
F G#         D#      G#
  aunque no pueda soñar
D#   G#  F   G#
 Tiempo, miedo
D#              G#  F G#
 Me niego a esperar
D#         G#
 Puedo crecer
F G#         D#      G# F G#
  aunque no pueda soñar

 A# F G# F#

----------------------------------------

Aguante Massacre!
También se puede afinar la guitarra a Eb , o usar un transportador,
y tocarla con los acordes no-sostenidos :P más comodo
Saludos!
Suggest correction
Give kudos to tab author, rate the tab!
1 2 3 4 5
comments
print report bad tab
guest
You may want to rate the tab now too:
select rating
Wanna post a correction for this tab? Suggest correction