Oops, an error
Loading. Please wait.

Mirando Al Pacífico Tab

24 views 1 this week
no commentswrite comment
1 2 3 4 5
3 more votes to show rating
add to favorites
launch autoscroll
font size
0
reset
how to read this tab
guitar tuner
×
Best way to learn
"Mirando Al Pacífico"
Autoscroll
slow
fast
+/-
esc
set tempo
stop
Intro:
|-0-----------0----3------0---------|
|-------3-----------------------3---|
|-----------------------------------| X2
|-----------------------------------|
|-----------------------------------|
|-----------------------------------|

|-0-----------------------0---------|
|-------3-----0-----3-----------3---|
|-----------------------------------|  X2
|-----------------------------------|
|-----------------------------------|
|-----------------------------------|

|-0-----------0----3------0---------|
|-------3-----------------------3---|
|-----------------------------------|
|-----------------------------------|
|-----------------------------------|
|-----------------------------------|

|-0-----------------------0---------|
|-------3-----0-----3---------------|
|-----------------------------------|
|-----------------------------------|
|-----------------------------------|
|-----------------------------------|

|-3-----0-----------------0---|
|-------------------3---------|
|-----------------------------|
|-----------------------------|
|-----------------------------|
|-----------------------------|

|-------------------|
|-3----0-------3----|
|-------------------|
|-------------------|
|-------------------|
|-------------------|


Fraseo principal:
|---------------------------------------------|
|---------------------------------------------|
|---------------------------------------------|
|-----------------------5--5--5----5--5--5----|
|--7----7-7-7-7-7-7---------------------------|
|---------------------------------------------|

|---------------------------------------------|
|---------------------------------------------|
|---------------------------------------------|
|--7----7-7-7-7-7-7-----9--9--9--9-----7-7-7--|
|---------------------------------------------|
|---------------------------------------------|

|---------------------------------------------|
|---------------------------------------------|
|---------------------------------------------|
|-----------------------5--5--5----5--5--5----|
|--7----7-7-7-7-7-7---------------------------|
|---------------------------------------------|

|--------------------------------------------|
|--------------------------------------------|
|--------------------------------------7-7-7-|
|--7----7-7-7-7-7-7-----9--9--9--9-----------|
|--------------------------------------------|
|--------------------------------------------|

|-----------------------------------------|
|--5---5-5-5-5-5-5---8---5--------5-------|
|----------------------------7------------|
|-----------------------------------------|
|-----------------------------------------|
|-----------------------------------------|

|---------------5--------------------------|
|--8---5-5?8---------8----5----------------|
|------------------------------7----4--7---|
|------------------------------------------|
|------------------------------------------|
|------------------------------------------|

|-----------------------------------------|
|--5---5-5-5-5-5-5---8---5--------5-------|
|----------------------------7------------|
|-----------------------------------------|
|-----------------------------------------|
|-----------------------------------------|

|---------------5----7---5-------------5------|
|--8---5-5?8-------------------5----8---------|
|---------------------------------------------|
|---------------------------------------------|
|---------------------------------------------|
|---------------------------------------------|

|--0-----------0-------------|
|------0------------0--------|
|----------0-------------0---|  x8
|----------------------------|
|----------------------------|
|----------------------------|

Repite el fraseo entero

(la segunda vez termina el fraseo
con un Em y deja pasar una vuelta)

|-------------------------|
|-------------------------|
|-------------------------| X4
|-------------------------|
|---7---7---7---5---7-----|
|-------------------------|


|--0-----------0-------------|
|------0------------0--------|
|----------0-------------0---|  x8
|----------------------------|
|----------------------------|
|----------------------------|

|---------------------------------------------|
|---------------------------------------------|
|---------------------------------------------|
|-----------------------5--5--5----5--5--5----|
|--7----7-7-7-7-7-7---------------------------|
|---------------------------------------------|

|---------------------------------------------|
|---------------------------------------------|
|---------------------------------------------|
|--7----7-7-7-7-7-7-----9--9--9--9-----7-7-7--|
|---------------------------------------------|
|---------------------------------------------|

|---------------------------------------------|
|---------------------------------------------|
|---------------------------------------------|
|-----------------------5--5--5----5--5--5----|
|--7----7-7-7-7-7-7---------------------------|
|---------------------------------------------|

|-----------------------------------------------|
|-----------------------------------------------|
|-----------------------------------------------|
|--7----7-7-7-7-7-7-----9--9--9--9--7--7--7--7--|
|-----------------------------------------------|
|-----------------------------------------------|

|---------------------------------------------|
|---------------------------------------------|
|---------------------------------------------|
|-----------------------5--5--5----5--5--5----|
|--7----7-7-7-7-7-7---------------------------|
|---------------------------------------------|

|---------------------------------------------|
|---------------------------------------------|
|---------------------------------------------|
|--7----7-7-7-7-7-7-----9--9--9--9-----7-7-7--|
|---------------------------------------------|
|---------------------------------------------|

|---------------------------------------------|
|---------------------------------------------|
|---------------------------------------------|
|-----------------------5--5--5----5--5--5----|
|--7----7-7-7-7-7-7---------------------------|
|---------------------------------------------|

|-----------------------------------------------|
|-----------------------------------------------|
|-----------------------------------------------|
|--7----7-7-7-7-7-7-----9--9--9--9--7--7--7--7--|
|-----------------------------------------------|
|-----------------------------------------------|

|---------------------------------------------|
|---------------------------------------------|
|---------------------------------------------|
|---5-----------------------------------------|
|-----------------------7---------------------|
|---------------------------------------------|

y ya lo saben, para preguntas, sugerencias o
cualquier otra cosa, metansen a Villalba_rock_89@
y si andan un poco aburridos charlamos un rato, chau chicos suerte!!!!!!!
Suggest correction
Give kudos to tab author, rate the tab!
1 2 3 4 5
comments
print report bad tab
guest
You may want to rate the tab now too:
select rating
Wanna post a correction for this tab? Suggest correction