Oops, an error
Loading. Please wait.

Nuevo Día Chords

version 1
version 1

Whole song

81 views 1 this week
no commentswrite comment
1 2 3 4 5
3 more votes to show rating
add to favorites
×
Save as Personal and add changes to this tab that will be seen only by you. Learn more ›
×
You can save this tab as Personal to edit and correct it or add notes. All changes will be seen only by you. Learn more »
save as personal
new!
launch autoscroll
font size
0
reset
transpose
0
reset
simplify chords
display chords
guitar tuner
Autoscroll
slow
fast
+/-
esc
set tempo
stop
Strumming
There is no strumming pattern for this song yet. and get +5 IQ
Asi es como sale en Diferentes maneras, el disco en vivo, si hay alguna
diferencia con versiones de otros discos, perdonenme

|---------------------------------|
|---------------------------------|
|---------------------------------|
|---------------------------------|
|--6--8--9--4-----2-2--4--6-6-4---|
|---------------------------------|

|----------------------------------|
|----------------------------------|
|----------------------------------|
|----------------------------------|
|------6--8--9--4-------2-2-2---4~-|
|----------------------------------|

D#5                                  F#5
Te agradezco también los hermosos presagios
D#5            F#5           B5                     F#5
Aunque debas saber, no, no, no, que lo dicho fue en vano
D#5         F#5        B5         F#5
Debo yo esperar a que sientas lo que siento por ti
D#5            F#5        B5    F#5
Aunque sea muy triste, quiza, quiza
G#5             B5
Triste, quiza, triste, no, no, no,
G#5             B5          F#5
Triste, quiza, triste, muy triste?

|---------------------------------|
|---------------------------------|
|---------------------------------|
|---------------------------------|
|--6--8--9--4-----2-2--4--6-6-4---|
|---------------------------------|

|---------------------------------|
|---------------------------------|
|---------------------------------|
|---------------------------------|
|--6--8--9--4-----2-2--4--6-6-4---|
|---------------------------------|
D#5                                  F#5
Sufrimiento, no, no es la forma de hacerlo
D#5    F#5     B5                   F#5
Verte así, no, no, no es el modo de verlo
D#5  F#5       B5        F#5
El dolor de tocarte, el dolor de verte así
D#5            F#5       B5     F#5
Ya no voy a sentirlo, no más, jamás
G#5             B5
Triste, quiza, triste, no, no, no,
G#5             B5          F#5
Triste, quiza, triste, muy triste?

|------12----------------------------------------|
|-11-11--11-11-11-14-11-12-12-12-12-11-9-7-6-----|
|--------------------------------------------6-6-|
|------------------------------------------------|
|------------------------------------------------|
|------------------------------------------------|

|----------------------------------------------|
|--7-7--6-6---9--7-6-6----7-7-6-6---9--7-6-6---|
|----------------------------------------------|
|----------------------------------------------|
|----------------------------------------------|
|----------------------------------------------|

|----------------------------------------------|
|--7-7-7-7-7-7-7-7-7-7-7-7-7-7-7-7-7-----------|
|--------------------------------------8-8-8-8-|
|----------------------------------------------|
|----------------------------------------------|
|----------------------------------------------|
(en esta parte usa muchos bendings y cambia bastante de
de distorsion y saturación)


|13--9--11--13--9-----|
|------------------9--|
|---------------------|    X2
|---------------------|
|---------------------|
|---------------------|

|----------------------------------------------|
|-6-7-7-7-7---6-7-7-7-7---9-9-9-9---11---------|
|----------------------------------------------|
|----------------------------------------------|
|----------------------------------------------|
|----------------------------------------------|

|------11--------14--13--11---13----14----13----11-11----------------|
|-11-11--11-11-11--11--11---11---11----11----11-------13-13-13-13-13-|
|--------------------------------------------------------------------|
|--------------------------------------------------------------------|
|--------------------------------------------------------------------|
|--------------------------------------------------------------------|

|------------------------------------11-11-11-11----------|
|12-12-12-12-12-12-12-12--11-11-11-11-----------9-9-9-9-9-|
|---------------------------------------------------------|
|---------------------------------------------------------|
|---------------------------------------------------------|
|---------------------------------------------------------|

D#5   F#5      B5             F#5
Nueve horas más,fueron tantas horas
D#5   F#5  B5                F#5
Ya lo ves así yo te sigo queriendo
D#5        F#5           B5    F#5
Aunque solo me quede con mi tristeza
 Y ese hermoso presente salvaje y nada más
|-----------------------------------|
|--------------------6-------6------|
|-----6------6-----------8-----8----|
|---6------6-----8-8---8---8--------|
|-4------6--------------------------|
|-----------------------------------|
(aca lo toca como arpegios, hace esto 6 veces, la sexta hace:...)

|------------------------------|
|------------------------------|
|-----6------6----10-11-10-11--|
|---6------6------10-11-10-11--|
|-4------6--------8--9--8--9---|
|------------------------------|

D#5   B5                  C#5
Un ceptain is what you're feeling and you know You've done right
D#5     B5         C#5
and You know become mine And You become know
D#5         B5         C#5
by my side, by my side, by my side

D#5 B5
F5-F#5-F5-D#5-F5-F5

C#5 C#5 C#5

|------------|
|------------|
|--8--10--6--|
|------------|
|------------|
|------------|

C#5 C#5.........F#5.....F#5     Gracias!!!!


Bueno, ahi la tienen bien completita, disfrutenla porque BASTANTE me
costo sacarla. Los dejo, para preguntas, sugerencias, amenazas de muerte,
 o por el gusto de escribir, escribanme a Villalba_rock_89@
 Aguanten los Massacre y el punkrock!!!!!
Suggest correction
Give kudos to tab author, rate the tab!
1 2 3 4 5
comments
print report bad tab
guest
Wanna post a correction for this tab? Suggest correction