Oops, an error
Loading. Please wait.

Te Leo Al Revés Chords

86 views 1 this week
no commentswrite comment
1 2 3 4 5
3 more votes to show rating
add to favorites
launch autoscroll
font size
0
reset
transpose
0
reset
simplify chords
display chords
guitar tuner
Autoscroll
slow
fast
+/-
esc
set tempo
stop
Help us to improve Ultimate-Guitar.com Take our survey!
×
Holaaaaa Somos los Massacre, asi q un beso, toma... MUaCK !!!


|--------------------------------------|
|--------------------------------------|
|--------------------------------------|
|---------------------------8--8--10---|
|-8-8-8-8-8-8-8-8-8-8-8-8--10--8---8---|
|--------------------------------------|


F5         G#5                 D#5            A#5
   Resulta sabio, el nuevo lenguaje que aprendí,
       C#5          D#5                  A#5           C#5
parece fácil, ejercitable, con solo escuchar lo que decís,
               D#5       A#5
Ya se interpretarte ahora,
             C#5       D#5
ya se que pensas ahora,
              A#5         C#5
ya se interpretarte ahora,
           D#5         F5 - F5
con una sutíl maniobra.

"aca se oye tambien la acustica q hace la siguiente secuencia
(A#m - C# - G# - D# ) donde se oye el acorde entero
                      para darle ese brillo unico al tema"

             A#5          C#5
Te leo al revés, invierto siglas
           G#5           D#5
no intento mas en vos creer,
             A#5            C#5
Te leo al revés, como en un vidrio
        G#5           D#5
el velo cae hasta tus pies
        A#5     C#5
el velo caaaaaaae...
        G#5           D#5
el velo cae hasta tus pies
        A#5    C#5
el velo caaaaaae...
        G#5           D#5
el velo cae hasta tus pies

  Ah,  ah,  ah, ah          Ah,  Ah  Caeee !!

|---------------------| |-----------------------|
|---------------------| |-----------------------|
|---------------------| |-----------------------|
|-11---10---8---(6)---| |---11---10---8---------|
|--9----8---6---(4)---| |----9----8---6---------|
|---------------------| |-----------------------|

(P.P.P.)Pseudo-Punteo-Puente

|--------------------------------------------------------|
|--------------------------------------------------------|
|--------------------------------------------------------|
|-13----10-------13----10-------13----10----11-10-11-13--|  x2
|----13-------------13-------------13--------------------|
|--------------------------------------------------------|


|---------------------------------------|
|---------------------------------------|
|---------------------------13---15-13--|
|-15-13---15-13---15-13---15------------|
|---------------------------------------|
|---------------------------------------|

|-------------------------| Esta parte
|--------13-13------------| es opcional
|-15-13--13-13------------| empieza en
|--------------(10--10)---| "ya se interp.."
|---------------(8---8)---| ()si tenes el
|-------------------------| efect JET usalo

               D#5       A#5
Ya se interpretarte ahora,
             C#5       D#5
ya se que pensas ahora,
              A#5         C#5
ya se interpretarte ahora,
           D#5         F5 - F5
con una sutíl maniobra.


             A#5          C#5
Te leo al revés, invierto siglas
           G#5           D#5
no intento mas en vos creer,
             A#5            C#5
Te leo al revés, como en un vidrio
        G#5           D#5
el velo cae hasta tus pies
A#5   C#5
Hizo presencia
    G#5          D#5
la clave de la salud mental
A#5   C#5
Hizo presencia
    G#5                  D#5         A#5
la puerta que hoy si me ayudará a salir

Sigue la secuencia
ambas violas

electrica: A#5 - C#5 - G#5 - D#5
Acustica : A#m - C#  - G#  - D#

(P.F) Punteo final

|-------------------------------------------|
|-------------------------------------------|
|-------------------------------------------|
|-------------------------------------------|  X3
|------3-3-4---6-6-4-4-6---3-3-4-4-6--------|
|--6-6-------------------------------6------|

Te leo al revés...

|-------------------------------------------|
|-------------------------------------------|
|-------------------------------------------|
|-------------------------------------------|
|------3-3-4---6-6-4-4-6---3-3-4-4-6--------|
|--6-6-------------------------------6------|

  A#5


GRACIAS MI AMOR !!!!

.................................

Bueno niños, espero que les haya servido
es mi primer tab, de una de mis bandas preferidas
Asi que si te sirvio joya !! bueniiisimo.

comentarios y/o sugerencias
haganlo a
shastra_moksha@
o en

Un beso y se me cuidan !!
Suggest correction
Give kudos to tab author, rate the tab!
1 2 3 4 5
comments
print report bad tab
guest
You may want to rate the tab now too:
select rating
Wanna post a correction for this tab? Suggest correction