Oops, an error
Loading. Please wait.

Devastación Tab

28 views 1 this week
no commentswrite comment
1 2 3 4 5
3 more votes to show rating
add to favorites
×
Save as Personal and add changes to this tab that will be seen only by you. Learn more ›
×
You can save this tab as Personal to edit and correct it or add notes. All changes will be seen only by you. Learn more »
save as personal
new!
launch autoscroll
font size
0
reset
how to read this tab
guitar tuner
Autoscroll
slow
fast
+/-
esc
set tempo
stop
Intro guitarra acustica
5)-555-444-4-5-4-2-----
6)-333-222-2-3-2-0-----
PM ... ... . . . 

Cortes
5)-2-2-2-2-2-2-2-2---2-2-2-2-2-2-2-2-----
6)-0-0-0-0-0-0-0-0---0-0-0-0-0-0-0-0-----

intro a la voz
5)-3--3----3--3---3--3----3--3-3--9---
6)-100100001001---100100001001-1//7//-(arrastra desde el 1 a 7 y 7 a 1)
PM ............   ............

Base que canta
5)-3--3----3--3---3--3----3--3-3--9---3--3----3--3--------3--3----3--3-3--9---
6)-100100001001---100100001001-1//7//-100100001001-00000--100100001001-1//7//-
PM ............   ............        ............ .....  ............  

Estribillo
3)-----------------------------------------54^5^4^5^4^5^4-------------
4)-----------3----------------------3----43---------------------------
5)-----------1-----------3----------1--32-----------------------------
6)-0000000-0---0000000-0-1-000000-0---0-------------------------------
PM ....... .   ....... .   ...... .   . 

Continuacion Estribillo
4)------------------------------------------------------555-44444-------------------
5)-2--22-3----------2----55555-333-2--22-3---------2-22-333-22222-333-55555---------
6)-0--00-1--3-1^3^1-0-00-33333-111-0--00-1-3-1^3^1-0-00-----------111-33333-3-1^3^1-
PM    ..    .         ..  .... ...    ..   .            ... ..... ... ..... .

Cortes(1 sola vuelta), Base cantada, estribillo, continuacion estribillo

5)-2---
6)-0--- queda el bajo solo.

4)-9--8--7--6--66-9--8--7--6--67-9--8--7--6--67--9--9----8--8----7--7----6--6-67
5)-7--6--5--4--45-7--6--5--4--45-7--6--5--4--45--7007000060060000500500004004045
PM                                                .. .... .. .... .. .... .. .

4)-9-99--8-88--7-77--66667767--9-99--8-88--7-77----------------9-99--8-88--7-77--66667767-
5)-7-77--6-66--5-55--44445545--7-77--6-66--5-55----------------7-77--6-66--5-55--44445545-
6)--0--00-0--00-0--00-----------0--00-0--00-0--00--00000-00000--0--00-0--00-0--00---------
PM  .  .. .  .. .  ........     .  .. .  .. .  ..  ..... .....  .  .. .  .. .  ..

Cortes, base cantada, estribillo,continuacion estribillo

Final simil base cantada pero todo machacado
5)-3--3-----3--3-----3--3-----3--3-
6)-1001000001001000001001000001001-
PM ..............................
Suggest correction
Give kudos to tab author, rate the tab!
1 2 3 4 5
comments
print report bad tab
guest
Wanna post a correction for this tab? Suggest correction