Oops, an error
Loading. Please wait.

Devastación Bass

11 views 1 this week
no commentswrite comment
1 2 3 4 5
3 more votes to show rating
add to favorites
launch autoscroll
font size
0
reset
guitar tuner
×
Best way to learn
"Devastación"
Autoscroll
slow
fast
+/-
esc
set tempo
stop
Intro
1)--------------------------------------------
2)--------------------------------------------
3)-13-13----13-13---13-13----13---------------
4)-------12-------0-------12----333-222-3-2-0-

CORTES
1)--------------------     ----------------------9--------------------
2)--------------------     -------------------------------------------
3)--------------------     --------------------7----------------------
4)-0-0-0-0-0-0-0-0--x2     -1-00-1-0000-1-00-1-----1-00-1-0000-1-00-1-

RIFF 1					       RIFF1 (Parte B)
1)----------------------9--------------------  ---------------------------------------------
2)-------------------------------------------  ---------------------------------------------
3)--------------------7----------------------  ---------------------------------------------
4)-1-00-1-0000-1-00-1-----1-00-1-0000-1-00-1-  --1-00-1-0000-1-00-1-0000-1-00-1-0000-1-00-1-

RIFF 2
1)---------------------------------------------43-----
2)------------------------------------------32----3---
3)-----------1-----------------------1---21-----------
4)-00-000000---00-000000-1-00-000000---0--------------

RIFF 3
1)--------------------------------------------------------------
2)--------------------------------------------------------------
3)------------------------------------------333-2222------------
4)-0-00-1--31-0-00-333-11113-0-00-1-31-0-00----------111-3333-1-

CORTES x1, RIFF1, RIFF2, RIFF3 Termina en 4)-0-

1)----------------------------------------------------------------------
2)-14----14----14---13----13----13---12----12----12---11----11----11-12-
3)----00----00----0----00----00----0----00----00----0----00----00-------
4)----------------------------------------------------------------------X4

1)----------------------------------------------------------------------------------
2)----------------------------------------------------------------------------------
3)-7-77-6-66-5-55-4444-55-4-5---7-77-6-66-5-55---------7-77-6-66-5-55-4444-55-4-5---
4)---------------------------------------------000000-----------------------------0-

CORTES x1, RIFF 1, RIFF2, RIFF3, RIFF1 (Parte B)
Suggest correction
Give kudos to tab author, rate the tab!
1 2 3 4 5
comments
print report bad tab
guest
You may want to rate the tab now too:
select rating
Wanna post a correction for this tab? Suggest correction