Oops, an error
Loading. Please wait.

Espectáculo Macabro Tab

7 views 1 this week
no commentswrite comment
1 2 3 4 5
3 more votes to show rating
add to favorites
launch autoscroll
font size
0
reset
how to read this tab
guitar tuner
×
Best way to learn
"Espectáculo Macabro"
Autoscroll
slow
fast
+/-
esc
set tempo
stop
intro
Riff (A)                           |x2    (B)
3)--------------------------------------|------------------------------------32-
4)-----------------------------------32-|--2--22--22--2-33333-2--22--22--2-21---
5)-2--22--22--2-33333-2--22--22--2-21---|--0-000-000-00-11111-0-000-000-00------
6)-0-000-000-00-11111-0-000-000-00------|---------------------------------------
PM   .   .   .   ....   .   .   .            .   .   .   ....   .   .   .

Riff (A) x1

Corta y larga la otra viola
4)---------------------------2--Queda sondando
5)-2----------3-3-3-2--------0--
6)-0----------1-1-1-0-----------

Riff 1 (canta en la 2 vuelta)
4)-----------------------------------------------2-
5)-2------2------2------3-3-3-2-----2-----2------0-
6)-0-3333-0-3333-0-3333-1-1-1-0-320-0-320-0-320-0--
PM   ....   ....   ....         ...   ...   ... .

Cambio base (B)
4)------45--
5)--23-5----
6)-3--------

Riff 2                                       |x2
4)--------------------(10)---------------------5---|
5)-22-2--------22-2-2-2-8-22-2--------22-------3---|
6)-00-0-000000-00-0-0-0---00-0-000000-00-0-310-----|
PM      ......                 ......    . ...
Riff 3                                      |x4
3)-------------0----------------------------------|
4)------------4----22^5^2^0---------------0---0---|
5)----2------5---33-------------2--------2---0-0--|
6)-00-0-000-0----------------00-0-000-0-3--11-----|
PM ..   ... .... ...         .. . ... . .......

Corta                           
4)---------------------2--2--2---
5)-2-----22-----2------2--2--2---
6)-0-----00-----0-------32-32-32-
PM                     .. .. ..

4)---------------------975---------2--2--2----|x3
5)-------------1111111-753---------2--2--2----|
6)-00000000000------------00000000--32-32-32--|
PM ........... ....... ...........   .. .. ..

Riff 3 base del solo x4 veces, Riff 2 x4

Corta queda guitarra sola y despues hace
   __                              __      
  |                |                       |x3 |x6
5)|-2-2-2-2-2-2-|-----1111----3333-|---|
6)|-0-0-0-0-0-0-|-0000----2222-----|---|
   --                              --
PM                ................

Final 
5)-222-2-22222-2-22222-2-222-2-
6)-000-0-00000-0-00000-0-000-0-
PM ... . ..... . ..... . ...

Riff 1
Termina con Cambio de base (B)
Suggest correction
Give kudos to tab author, rate the tab!
1 2 3 4 5
comments
print report bad tab
guest
You may want to rate the tab now too:
select rating
Wanna post a correction for this tab? Suggest correction