Oops, an error
Loading. Please wait.

Espectáculo Macabro Bass Tab

17 views 1 this week
no commentswrite comment
1 2 3 4 5
3 more votes to show rating
add to favorites
launch autoscroll
font size
0
reset
guitar tuner
Autoscroll
slow
fast
+/-
esc
set tempo
stop
Help us to improve Ultimate-Guitar.com Take our survey!
×
RIFF 1
1)-----------------------------------
2)-------------------------------3-2-
3)---------------------------2-1-----
4)-0-00-00-0-11111-0-00-00-0---------x2


1)-------------------------------3-2-
2)---------------------------2-1-----
3)-0-00-00-0-11111-0-00-00-0---------
4)-----------------------------------

RIFF 1

1)--------------------------
2)--------------------------
3)-----------------------0--
4)-0-------1-1-1-0----------

RIFF 2
1)-----------------------------------------------------------------
2)-----------------------------------------------------------------
3)---------------------------------------------------------------0-
4)-0-0033330-0033330-0033330-0-1-1-1-0-0033320-0033320-0033320-0---x6

RIFF 2 (B)
1)------------------
2)------------4-5---
3)---2-3----5-------
4)-3----------------

RIFF 4
1)---------------------------------------------------
2)---------------------------------------------------
3)------------------------8------------------------3-
4)-00-0-00000000-00-0-0-0---00-0-00000000-00-0-310---x2

RIFF 5
1)------------7-----------------------------
2)-----------7-------5-------------5--------
3)----------5----3-3--------------5------3--
4)-00000000-------------00000000-3---1-1----x4


1)-----------------------------
2)-----------------------------
3)-----------------2---2---2---
4)-0----00----0-----32--32--3--


1)-----------------------------------------
2)-----------------------------------------
3)----------1111-7-5-3----------2---2---2--
4)-00000000------------00000000--32--32--3-x3

RIFF 5 (base solo), RIFF 4 x4.

1)------	-------------
2)------	-------------
3)------	-------------
4)-0----	----00-0-000-


1)----------------------------------------------
2)----------------------------------------------
3)----11----33----11----33----11----33----------
4)-00----22----00----22----00----22----00-0-000-x3


1)-------------------------------------------------------
2)----88----10-10----88----10-10----88----10-10----------
3)-77----99-------77----99-------77----99----------------
4)----------------------------------------------00-0-000-x3


1)---------------------
2)---------------------
3)---------------------
4)-00-0-000-00-0-000-0-

RIFF 2 x3, RIFF 2 (B)
Suggest correction
Give kudos to tab author, rate the tab!
1 2 3 4 5
comments
print report bad tab
guest
You may want to rate the tab now too:
select rating
Wanna post a correction for this tab? Suggest correction