Oops, an error
Loading. Please wait.

Fábrica De Monos Tab

116 views 3 this week
no commentswrite comment
1 2 3 4 5
3 more votes to show rating
add to favorites
×
Save as Personal and add changes to this tab that will be seen only by you. Learn more ›
×
You can save this tab as Personal to edit and correct it or add notes. All changes will be seen only by you. Learn more »
save as personal
new!
launch autoscroll
font size
0
reset
how to read this tab
guitar tuner
Autoscroll
slow
fast
+/-
esc
set tempo
stop
[ch]A[/ch]
4)-10--9--10--12--10-9-----10--9--10--12--10-9--
5)---00-00--00--00--0-0------00-00--00--00--0-0-
PM   .. ..  ..  ..  . .      .. ..  ..  ..  . . 

[ch]F[/ch]
4)-10--9--10--12--10-9-----10--9--10--12--10-9--
5)---88-88--88--88--8-8------88-88--88--88--8-8-
PM   .. ..  ..  ..  . .      .. ..  ..  ..  . .

[ch]D[/ch]
4)-9--7--9--7--9-10-----9--7--9--7--9-10---
5)--55-55-55-55-5--5-----55-55-55-55-5--5--
PM  .. .. .. .. .  .     .. .. .. .. .  .

[ch]E[/ch]
4)-10--9--10--9--10-12----10--9--10--9--10-12---
5)---77-77--77-77--7--7-----77-77--77-77--7--7--
PM   .. ..  .. ..  .  .     .. ..  .. ..  .  .

Riff 2 (canta)
4)-----------------------5----5----------------999-777-555-444------
5)-7----7-----3----3-----3333333333-2----2-----777-555-333-222-3-2---
6)-5555555555-1111111111------------0000000000---------------------3-
PM  .........  .........  .........  ......... ... ... ... ... 

Riff 1, Riff 2

Riff 3 (estribillo)
4)---------------555-444-2-----------------
5)-3------5------333-222-00000-------0-2-3-
6)-111111-333333---------------0-2-3-------
PM  .....  ..... ... ...  ....

5)-3------5------7------7------7------7---
6)-111111-333333-5-55-5-555555-5-55-5-555-
PM  .....  ..... ........................

4)---------------555-444-2----------0-2-3-
5)-3------5------333-222-0000-0-2-3-------
6)-111111-333333--------------------------
PM  .....  ..... ... ...  ...

5)-3------5------7------7------7------7---
6)-111111-333333-5-55-5-555555-5-55-5-555-
PM  .....  ..... ........................

Riff 1
(Riff 2 y Riff 3) base del solo.
Riff 2
Riff 3
Riff 2 solo 2.
Ultima vuelta de Riff 2 termina con 5)---3-2---7-
                                  6)-------3-5-
Suggest correction
Give kudos to tab author, rate the tab!
1 2 3 4 5
comments
print report bad tab
guest
Wanna post a correction for this tab? Suggest correction