Oops, an error
Loading. Please wait.

Gracias Amor Tab

26 views 1 this week
no commentswrite comment
1 2 3 4 5
3 more votes to show rating
add to favorites
launch autoscroll
font size
0
reset
how to read this tab
guitar tuner
×
Best way to learn
"Gracias Amor"
Autoscroll
slow
fast
+/-
esc
set tempo
stop
Aqui esta el intro de esta hermosa cancion,
espero q les agrade..

E--6-5-6--------6-5-6--------6-5-8--------
B--------3-3-3--------3-3-3--------6-6----
------------------------------------------
------------------------------------------
------------------------------------------


E--8-7-8--------8-7-8--------8-7-10-------
B--------6-6-6--------6-6-----------------
------------------------------------------
------------------------------------------


E--10/11-10-8-6---------------------------
B-----------------------------------------
------------------------------------------


KUALQUIER DUDA O CORRECCION ME ESCRIBBEN A MSN...
GARY_ALVAREZ2005@
Suggest correction
Give kudos to tab author, rate the tab!
1 2 3 4 5
comments
print report bad tab
guest
You may want to rate the tab now too:
select rating
Wanna post a correction for this tab? Suggest correction