Oops, an error
Loading. Please wait.

Tú O La Sencillez Chords

version 1
version 1

Whole song

50 views 3 this week
no commentswrite comment
1 2 3 4 5
3 more votes to show rating
add to favorites
launch autoscroll
font size
0
reset
transpose
0
reset
simplify chords
display chords
guitar tuner
×
Best way to learn
"Tú O La Sencillez"
Autoscroll
slow
fast
+/-
esc
set tempo
stop
                    Dm              A7                Dm 
e----------1------------------------------------------------------------------------1-
b---------3-----------------------------------------------------------------------3---
g--------2----------------------------------------------------------------------2-----
d----0------------------0-2-3-0---------0-2-3-0---------0-2-3-0---------------0-------
a--0-------------------------------1--------------0----------------1--------0---------
e-------------------------------------------------------------------------------------

  Dm                      A7
1)Miro siempre al cielo y con ansia espero que
                    Dm
  Qu?el rocio caiga gota a gota en mi piel
                    A7
  Luego espero al sol y le pido por favor (tching, popon)
                          Dm
  Que me encienda el fuego inprescindible del amor

            F       C                Dm
Estribillo :      Tu o la sencillez es mi felicidad
            F       C                Dm
                Tu o la sencillez es mi felicidad

  Dm                                  C
2)Corro corro corro corro por lados y me entretengo con las flores
  A7                  Dm
  El amor me hace mil paisajes interiores
                       C
  Voy siguiendo rio hasta que cruza al fin su meta a a
  A7                     Dm
  Brilla entre sus alas el color de los planetas


Estribillo 


  Dm                  F                      A7
3)Ia pateira ia pateira raraa ia pateira ia pateira ra ra
                  Dm   A7   Dm
  Ia pateira aa ia pateira uuuu a au a


1)Luego vuelvo a casa y me siento frente al fuego 

  Dibujando el aire dibujando el aire con el tinte de mis sueños

  Luego tus caricias que no quiero que me falten

  y acabar el dia y acabar el dia adormecido en cualquier parte eee


Estribillo 


3)Ia tataira ia tataira raraa ia tataira ia tataira ra ra 

  uuuu a ai a ai

                        
e-------------------------------------------------------------1--
b-----------------------------------------------------------3----
g---------------------------------------------------------2------
d--0-2-3-0---------0-2-3-0---------0-2-3-0--------------0--------
a------------1-----------------0--------------1-------0----------
e----------------------------------------------------------------
Suggest correction
Give kudos to tab author, rate the tab!
1 2 3 4 5
comments
print report bad tab
guest
You may want to rate the tab now too:
select rating
Wanna post a correction for this tab? Suggest correction