Oops, an error
Loading. Please wait.
85 views 1 this week
no commentswrite comment
1 2 3 4 5
2 more votes to show rating
add to favorites
launch autoscroll
font size
0
reset
transpose
0
reset
simplify chords
display chords
guitar tuner
×
Best way to learn
"Escupime"
Autoscroll
slow
fast
+/-
esc
set tempo
stop
El Em/C# es:

E |-------||
B |-------||
G |-------||
D |--2----||
A |--4----||
E |-------||

Los demas son en sus posiciones "normales".

La intro es así, si escuchan el tema la sacan enseguida.
Pueden hacerla en otra posición pero básicamente son las mismas notas
que los acordes (F# E D , B A D)
E |----------------|----------------|-------------||
B |--7--7--5--5----|--3-------------|-------------||
G |----------------|--------4--4----|--2--2-------||
D |----------------|----------------|--------0----||
A |----------------|----------------|-------------||
E |----------------|----------------|-------------||


F#m         Em/C#         D
desde el ascensor hasta mi,
Bm        A    D
ella piensa en él
F#m         Em/C#           D    Bm  A   D
mientras yo te enseño a escupir, otra vez

F#m         Em/C#         D
desde el pasillo hasta mi,
Bm        A    D
ella piensa en él
F#m         Em/C#           D    Bm  A   D
mientras yo te enseño a escupir, otra vez
F#m         Em/C#         D
otra vez,
Bm        A    D
otra vez,
F#m         Em/C#         D
otra vez,
Bm        A    D
otra vez


Primer tema que subo. aguante el mató!
Suggest correction
Give kudos to tab author, rate the tab!
1 2 3 4 5
comments
print report bad tab
guest
You may want to rate the tab now too:
select rating
Wanna post a correction for this tab? Suggest correction