Oops, an error
Loading. Please wait.

Lenguas De Fuego En El Cielo Tab

96 views 3 this week
no commentswrite comment
1 2 3 4 5
2 more votes to show rating
add to favorites
launch autoscroll
font size
0
reset
how to read this tab
guitar tuner
×
Best way to learn
"Lenguas De Fuego En El Cielo"
Autoscroll
slow
fast
+/-
esc
set tempo
stop
Intro
e|---------------------------------|
B|---------------------------------|
G|---------------------------------|
D|---------------------------------|
A|---------------------------------|
E|-0-0-0-0-2-2-2-2-4-4-4-4-5-5-5-5-|

                              Es tu luz     que            pisa en el
e|---------------------------------|--------------------------------|
B|---------------------------------|--------------------------------|
G|---------------------------------|--------------------------------|
D|---------------------------------|--------------------------------|
A|---------------------------------|--------------------------------|
E|-0-0-0-0-2-2-2-2-4-4-4-4-5-5-5-5-|0-0-0-0-2-2-2-2-4-4-4-4-5-5-5-5-|

  mar                           Ilumina                 las caras de
e|---------------------------------|--------------------------------|
B|---------------------------------|--------------------------------|
G|---------------------------------|--------------------------------|
D|---------------------------------|--------------------------------|
A|---------------------------------|--------------------------------|
E|-0-0-0-0-2-2-2-2-4-4-4-4-5-5-5-5-|0-0-0-0-2-2-2-2-4-4-4-4-5-5-5-5-|

  todos                        Es tu
e|---------------------------------|
B|---------------------------------|
G|---------------------------------|
D|---------------------------------|
A|---------------------------------|
E|-0-0-0-0-2-2-2-2-4-4-4-4-5-5-5-5-|

E F#m G#m   A       E  F#m
mano  gigante en el cielo
G#m  A        E  F#m
gigante en el cielo
G#m  A          E  F#m
gigante lluvia eterna
G#m    A         E
Quiero pedir perdón

( Se repite todo )
Suggest correction
Give kudos to tab author, rate the tab!
1 2 3 4 5
comments
print report bad tab
guest
You may want to rate the tab now too:
select rating
Wanna post a correction for this tab? Suggest correction