Oops, an error
Loading. Please wait.

Pelícanos Nocturnos Tab

13 views 1 this week
no commentswrite comment
1 2 3 4 5
3 more votes to show rating
add to favorites
launch autoscroll
font size
0
reset
how to read this tab
guitar tuner
Autoscroll
slow
fast
+/-
esc
set tempo
stop
Help us to improve Ultimate-Guitar.com Take our survey!
×
No es choro pero esta rola fue mi inspiracion para aprender a tocar, y
aunque me tarde unos años por fin logre una buena interpretacion que no
puede pasar desapercibida, espero seguir colaborando con buenas rolas.
Para alagos y reclamos cuentan con mi correo.


Cuerdas:  Eadgbe
Acordes:
Am7       002010
Aadd11/G  3x022x
D7        xx0212
Dsus5     xx0230
D/B       x2023x
D/F#      2x023x
D9        xx4530
G         0x003x
GM7       xx40xx
Gsus2     3x023x
Gsus4add9 3x021x


Intro:
  Gsus2           D/B     GM7        Cadd9
|-----------------|----------------|-------3---7---3---|------3---------|
|---------0---3---|------3---------|-----3----3------3-|----3-----3-----|
|-----0-2---2---0-|----2-----0---0-|---5-----5---5-----|--5-----5---2-0-|
|---0-----0-------|--0-----4---4---|-------------------|----------------|
|-----------------|2---------------|-------------------|----------------|
|-3---------------|----------------|0------------------|0---------------|

 D9      D7        D7sus4-D7-sus2     Gsus4add9       Aadd11/G
|------0---2-------|---3---2-0-0------|----------------|-----------------|
|----3----1----3---|--1----1-1-1---3--|-1---0---0------|-2-------2-------|
|--5-----2---2---2-|-2---2-2-2-2-2---2|-------2-----0--|-----2-------2---|
|4-----------------|------------------|---0-------0---0|---0---0---0---0-|
|------------------|------------------|----------------|-----------------|
|------------------|------------------|-3---3---3------|-3-------3-------|

***************************************************************************

  Gsus2              D/B       GM7       Am7
|------------------ --------- --------- -------0--3-----3-2-----2-0-------|
|---------0---3---- -------3- --------- -----1--------1-------1-------1---|
|-----0-2---2---0-- -----2--- ---0---0- ---0--------0-------0-------0---0-|
|---0-----0-------- ---0----- -4---4--- -2--------2-------2-------2-------|
|------------------ -2------- --------- ----------------------------------|
|-3---------------- --------- --------- ----------------------------------|
  Tengo los quince secretos que ataban sus miedos


  D9      D7     Dsus4             Gsus4add9          Aadd11/G
|-------0---2------3-2-0-0----- ----------------- ------------------|
|-----3----1--3---1--1-1-1---3- -1---0---0------- --2-------2-------|
|---5-----2------2---2-2-2-2--- -------2-----0--- ------2-------2---|
|-4---------------------------- ---0-------0---0- ----0---0---0---0-|
|------------------------------ ----------------- ------------------|
|------------------------------ -3---3---3------- --3-------3-------|
    en una fotografía tomada hace más de diez sueños


  Gsus2              D/B       GM7       Am7
|------------------ --------- --------- -------0--3-----3-2-----2-0-------|
|---------0---3---- -------3- --------- -----1--------1-------1-------1---|
|-----0-2---2---0-- -----2--- ---0---0- ---0--------0-------0-------0---0-|
|---0-----0-------- ---0----- -4---4--- -2--------2-------2-------2-------|
|------------------ -2------- --------- ----------------------------------|
|-3---------------- --------- --------- ----------------------------------|
Tengo su risa oprimida en el talle del rostro


D9          D7        Dm7        Gsus4add9
|-------0---2------3-2-0-0----- -----------------
|-----3----1--3---1--1-1-1---3- -1---0---0-------
|---5-----2------2---2-2-2-2--- -------2-----0---
|-4---------------------------- ---0-------0---0-
|------------------------------ -----------------
|------------------------------ -3---3---3-------
Tengo en un mapa el detalle la ruta del agua en sus ojos

  G          D/B       Am7
 ---------  --------- -------0-3-----0---
 -3-----3-  -------3- -----1-----------1-
 -----0---  -----2--- ---0-------0-------
 ---0-----  ---0----- -2-------2-----2---
 ---------  -2------- -------------------
 -3-------  --------- -------------------
       Tengo ganas de ayudarle a encontrar

 D/F#            Gsus4
-----------    ------------------
-----3-1---    --1---0---0-----0-
-------2-2-    --------2-----2---
---0---0---    ----0-------0-----
-----------    ------------------
-2---------    --3---3-----------
Sus pelícanos nocturnos

 G          D/B       Am7                D7    D9         Gsus4add9
---------  --------- -0-------0-----------------    -----------------
-3-----3-  -------3- ---1---3-----1s3------1----    -1---0---0-----0-
-----0---  -----2--- -----0-----0-----0--0-2-2--    -------2-----0---
---0-----  ---0----- -2----------------4--------    ---0-------0-----
---------  -2------- ---------------------------    -----------------
-3-------  --------- ---------------------------    -3---3-----------
    Que llenándose los picos de voz se perdieron en el mar

 G                   Am7             D5                  Gsus4add9
------------------- ---------0-3-2- -----------  -----  -----------------
-3-----3---3p0----- ---1---1------- -----3---3-  -1---  -1---0---0-----0-
-----0---------0--- --0--0--------- ---2---2---  ---2-  -------2-----0---
---0-------------0- -2---------0--- -0---0---0-  -----  ---0-------0-----
------------------- --------------- -----------  -----  -----------------
-3-------3--------- --------------- -----------  -----  -3---3-----------
                     Tengo tanto que admirarle porque aun en blanco y negro

G                   Am7                   D              Gsus4add9
------------------- -0-------0---    -----2---------    -----------------
-3-----3---3p0----- ---1---3---1-    -------3-------    -1---0---0-----0-
-----0---------0--- -----0-------    ---0-2---------    -------2-----0---
---0-------------0- -2-----------    -0-------------    ---0-------0-----
------------------- -------------    ---------------    -----------------
-3-------3--------- -------------    ---------------    -3---3-----------
                    Columpiaba en sus aretes el color de la niñez

G                    Am7                      D            Gsus4add9
------------------- ------------        ------2-3---      -----------------
-3-----3---3p0----- -----1---3--        ------------      ---------0-----0-
-----0---------0--- ---0---0----        ---0--2-2---      -----0-2-----0---
---0-------------0- -2----------        -0----------      ---0-------0-----
------------------- ------------        ------------      -----------------
-3-------3--------- ------------        ------------      -3---------------
                      Tengo ganas de quedarme a vigilar que no se duerma

G                   Am7                   D7             Gsus4add9
------------------- -0---------0------------2-------    -----------------
-3-----3---3------- -----1---3-----1------1----1----    -1---0---0-----0-
-----0---------0--- ---0---0-----0------0---2-2--2--    -------2-----0---
---0---------0----- -2----------------0-------------    ---0-------0-----
------------------- --------------------------------    -----------------
-3-------3--------- --------------------------------    -3---3-----------
                     La sonrisa en su retrato que sostiene mi pared

Solo:

|------2-2-2p0--------0-----------------------------3----3-----3----2---0--
|------3-3-3---3-1---1----0---0-----0-----5---5---5-----1----1-----1--1---1
|---0---------------2-------2-----2-----4---4---4------0---0------2--------
|------------------3----3-------3---------------------2----------0---------
|-------------------------------------4-------4----------------------------
|-3--------3---------------------------------------------------------------

------2---------------0-------------0-1-2s3-3-5-7-
----3-----3-------0-------0-----1-----------------
--5-----5---5---2---2---2---2-----0---------------
--------------------------------2-----------------
--------------------------------------------2-----
-0------------0-------0---------------------------

------3---7---3-----------3-----------2-----2--7----|
----3----3------3-----5-------5------1----1------7--|
--5-----5---5-------5---5---5---5---2---2-----------|
------------------0----------------0----------------|
----------------------------------------------------|
0---------------------------------------------------|

***************************************************************************

Gsus2             D/B        GM7          Am7
Tengo la imagen de aquella muchacha brillante
D9      D7     Dm7             Gsus4add9          Aadd11/G
Acorralada en el marco de un mundo sin cielos que canten
Gsus2              D/B       GM7       Am7
Tengo la rabia de quien retraso su regreso
D9          D7        Dm7        Gsus4add9
Y ya no puedo evitar el derrame del agua en su espejo
G          D/B       Am7
Tengo ganas de ayudarle a encontrar
D/F#            Gsus4
Sus pelícanos  nocturnos
G          D/B       Am7                D7*   D9*        Gsus4add9
Que llenándose los picos de voz se perdieron en el mar
G                   Am7             D                  Gsus4add9
Tengo rato de observar que esta la espera de invierno
G                   Am7             D                  Gsus4add9
Porque piensa que es mas puro porque cree que trae la luz
G                   Am7             D                  Gsus4add9
Tengo ganas de decirle que no espere mas la nieve
G                   Am7             D
Porque aquí resulta inútil porque estamos en el sur

Final:

  Gsus2           D/B     GM7        Cadd9
|-----------------|----------------|-------3---7---3---|------3---------|
|---------0---3---|------3---------|-----3----3------3-|----3-----3-----|
|-----0-2---2---0-|----2-----0---0-|---5-----5---5-----|--5-----5---2-0-|
|---0-----0-------|--0-----4---4---|-------------------|----------------|
|-----------------|2---------------|-------------------|----------------|
|-3---------------|----------------|0------------------|0---------------|

 D9      D7        D7sus4-D7-sus2     Gsus4add9       Aadd11/G
|------0---2-------|---3---2-0-0------|----------------|-----------------|
|----3----1----3---|--1----1-1-1---3--|-1---0---0------|-2-------2-------|
|--5-----2---2---2-|-2---2-2-2-2-2---2|-------2-----0--|-----2-------2---|
|4-----------------|------------------|---0-------0---0|---0---0---0---0-|
|------------------|------------------|----------------|-----------------|
|------------------|------------------|-3---3---3------|-3-------3-------|

-----------------3-|
-1---0---0-----0---|
-------2-----0-----|
---0-------0-------|
-------------------|
-3---3---3---------|
Suggest correction
Give kudos to tab author, rate the tab!
1 2 3 4 5
comments
print report bad tab
guest
You may want to rate the tab now too:
select rating
Wanna post a correction for this tab? Suggest correction