Oops, an error
Loading. Please wait.

Pétalo Negro Tab

8 views 1 this week
no commentswrite comment
1 2 3 4 5
3 more votes to show rating
add to favorites
launch autoscroll
font size
0
reset
how to read this tab
guitar tuner
Autoscroll
slow
fast
+/-
esc
set tempo
stop
Help us to improve Ultimate-Guitar.com Take our survey!
×
Los Riff 1 y 2 se alternan a lo largo de la canción, escuchenla
para sacar el ritmo.
Nota: en la canción la guitarra esta afinada un semitono más baja


Riff 1

-------0------------0-------------0--------3--3--3--3----
----------3-------------2-------------1----3--3--3--3----
-----2-----------2-------------2-----------0--0--0--0----
--0-----------0-------------0--------------0--0--0--0----
-------------------------------------------2--2--2--2----
-------------------------------------------3--3--3--3----


Riff 2

--0--0--0--0--0--0--0--0--0--0--0--0--0--0--0--0--0--0---
--3--3--3--3--3--3--2--2--2--2--2--2--1--1--1--1--1--1---
--2--2--2--2--2--2--2--2--2--2--2--2--2--2--2--2--2--2---
--0--0--0--0--0--0--0--0--0--0--0--0--0--0--0--0--0--0---
---------------------------------------------------------
---------------------------------------------------------

--3--3--3--3--3--3---
--3--3--3--3--3--3---
--0--0--0--0--0--0---
--0--0--0--0--0--0---
--2--2--2--2--2--2---
--3--3--3--3--3--3---


Intro  Riff 1

Riff 1

   Veo un pétalo negro de flor,
   y a cupido sin flecha ni Dios
   Veo un cielo cansado sin tus ojos
   porque aquí?aquí no pesa nada

Riff 2

    Esta el río repleto de sal
    Y los pajaros dejaron de volar
    Se inventaron dos colores en el aire
    Aquí? aquí no pesa nada

(instrumental)

    ?pesa nada

    Y si el muro encima mío cae
    Y todo lo vale, vale más
    Organiza una cena de vampiros
    Que yo llevo el vino del dolor

    Sabes?
    Pesa más que el amor?


Estribillo

  [ch]E              SOL[/ch]
    Y todavía no se
                       [ch]D[/ch]
    Si aun depende de ti
                           [ch]A[/ch]
    Y no me encuentro a mi mismo

  [ch]E                   SOL[/ch]
    Pétalo negro de flor
                         [ch]D[/ch]
    No lo mastiques mi amor
                           [ch]A[/ch]
    Que aquí nos sobra el abismo

  [ch]E                            SOL[/ch]
    Si alguien se cruza  con Dios

(a capella)
       Que diga que lo entendimos

Riff 1

Riff 2

    Y si el muro encima mio cae
    Y todo lo vale, vale más
    Invitame de nuevo a tu vida
    Que yo puedo decirte como es

     Sabes?
     Pesa más que el amor?


Estribillo x 2


Dudas y consultas
Santiago_rock@
Suggest correction
Give kudos to tab author, rate the tab!
1 2 3 4 5
comments
print report bad tab
guest
You may want to rate the tab now too:
select rating
Wanna post a correction for this tab? Suggest correction