Oops, an error
Loading. Please wait.

Envejeciéndome Tab

by May Day
43 views 1 this week
no commentswrite comment
1 2 3 4 5
3 more votes to show rating
add to favorites
launch autoscroll
font size
0
reset
how to read this tab
guitar tuner
×
Best way to learn
"Envejeciéndome"
Autoscroll
slow
fast
+/-
esc
set tempo
stop
Ahora si quedo 100 % correcta corregi unos errores que encontre
despues.

() - harmonicos
.. - Palm mute
h  - hammer pull
p  - pull off
x  - scratch

INTRO

e|--------------------------------------|
B|--------------------------------------|
G|--------------------------------------| (x3)
D|--------------------------------------|
A|---7-7------7--------7-7-777----------|
E|---5-5--7-9---9-7-9--5-5-555-(555)---|

e|---------------------------------------------|
B|---------------------------------------------|
G|---------------------------------------------|
D|---------------------------------------------|
A|--7-7------7--------2-2-2-2h4-4p2-0-------2--|
E|--5-5--7-9---9-7-9--0-0-0-----------4-2-0-0--|


VERSO 1 * Solamente el bajo en la 1ra parte*

Te vi caer desde una foto o fui yo quien no crecio,
quien soy para decirte quien es algun para decirlo

e|-----------------------------------------------------------------|
B|-----------------------------------------------------------------|
G|-----------7---------------7-7-7-7-------------------7-7-7-7-7-7-|
D|--7--------777777-7-7-7-77-7-7-7-7-4-4-4-4-2-2-2-2-2-7-7-7-7-7-7-|
A|--77777777-555555-77777777-5-5-5-5-4-4-4-4-2-2-2-2-2-5-5-5-5-5-5-|
E|--55555555--------55555555---------2-2-2-2-0-0-0-0-0-------------|
    .......   .....  . . .
  Si no estoy viendo estoy diciendo y mi historia es mi eleccion


repite INTRO completa 1 sola vez


CHORUS

e|-------------------------------------------|
B|-------------------------------------------|
G|-----9-9-9-9-9-9-9-------------------------|
D|-7-7-9-9-9-9-9-9-9-4-4-2-2-2-2-2-2-2-2-2---|
A|-7-7-7-7-7-7-7-7-7-4-4-2-2-2-2-2-2-2-2-2---|
E|-5-5---------------2-2-0-0-0-0-0-0-0-0-0---|
   Como vale el tiempo (como vale el tiempo)


e|---------------------------------|
B|---------------------------------|
G|---------9-9-9-9-9-9-7-7-7-7-7-7-|
D|-7-7-7-7-9-9-9-9-9-9-7-7-7-7-7-7-|
A|-7-7-7-7-7-7-7-7-7-7-5-5-5-5-5-5-|
E|-5-5-5-5-------------------------|
   si me la paso envejeciendome


e|------------------------------|
B|------------------------------|
G|-----99999-111111111111111111-|
D|-777-99999-111111111111111111-|
A|-777-77777-9-9-9-9-9-9-9-9-9--|
E|-555--------------------------|
   ser feliz no esta de mas

e|--------------------------------------|
B|--------------------------------------|
G|---------7-7-7-7-7-7--9-9-9-9-9-9-9-9-|
D|-4-4-4-4-7-7-7-7-7-7--9-9-9-9-9-9-9-9-|
A|-4-4-4-4-5-5-5-5-5-5--7-7-7-7-7-7-7-7-|
E|-2-2-2-2------------------------------|
   salvo q quieras ver pasar un dia mas


POST CHORUS

e|-------------------------------------------------|
B|-------------------------------------------------|
G|--------------------------------------9----------|
D|----7-9------7-9-xx-----7-9--7-7-9-11---11-9-11--|
A|-77-5-7---77-5-7-xx--77-5-7----------------------|
E|-55-------55---------55--------------------------|


VERSO 2

e|-----------------------------------------------------------|
B|-----------------------------------------------------------|
G|----------7-7-7-7-7-7-7---------------------7-7-7-7-7-7-7--|
D|-7-7-7-7--7-7-7-7-7-7-7--7-7-7-7-7-7-7-7-7--7-7-7-7-7-7-7--|
A|-7-7-7-5--5-5-5-5-5-5-5--7-7-7-7-7-7-7-7-7-?5-5-5-5-5-5-5--|
E|-5-5-5-5-----------------5-5-5-5-5-5-5-5-5-----------------|
   Sentiste el frio en tus huesos y el grito que jamas se oyo,

e|---------------------------------------------|
B|---------------------------------------------|
G|-------------------------7-7-7-7-7-7-7-7-7-7-|
D|-4-4-4-4-2-2-2-2-2-2-2-2-7-7-7-7-7-7-7-7-7-7-|
A|-4-4-4-4-2-2-2-2-2-2-2-2-5-5-5-5-5-5-5-5-5-5-|
E|-2-2-2-2-0-0-0-0-0-0-0-0---------------------|
  rebota en mi conciencia y trago su experiencia


e|----------------------------------------------------------|
B|----------------------------------------------------------|
G|--------7-7-7----------7-7-7-7-7--------------7-7-7-7-7-7-|
D|-7------777777-7-7-----777-7-7-7-4-4-4-2-2-2--7-7-7-7-7-7-|
A|-777777-555555-777777?-555-5-5-5-4-4-4-2-2-2--5-5-5-5-5-5-|
E|-555555--------555555------------2-2-2-0-0-0--------------|
    .....  . . .  .....   .
   improvisando voy dibujando,     un camino con mi sabor


repite INTRO completa 1 sola vez y luego el CHORUS


BRIDGE

e|-----------------------------------------------|
B|-----------------------------------------------|
G|-----------------------7----------9------------|
D|-7----------9----------7----------9------------|
A|-7----------9----------5----------7------------|
E|-5----------7----------------------------------|
    un dia mas,un dia mas,un dia mas ah ah ah ah

e|-------------------------------------------------------------|
B|-------------------------------------------------------------|
G|------------------------7-7-x-7-x-7-9-x-9-9--11-9-7-6-4-4-22-|
D|-7----------9-9-x-9-x-9-7-7-x-7-x-7-9-x-9-9--x--x-x-x-x-x-22-|
A|-7----------9-9-x-9-x-9-5-5-x-5-x-5-7-x-7-7--9--7-5-4-2-2-00-|
E|-5----------7-7-x-7-x-7--------------------------------------|
   un dia mas,un dia mas,un dia mas, un dia mas

repite CHORUS x 2

Outro
e|-------------------------------|
B|-------------------------------|
G|-------------------------------|
D|-------------------------------|
A|---7-7------7--------7-7-777---|
E|---5-5--7-9---9-7-9--5-5-555---|

cualquier duda,consulta, sugerencia o para pedir algun tema
envien un mail guillotepunkeke@ Aguante el Punk!!!
Suggest correction
Give kudos to tab author, rate the tab!
1 2 3 4 5
comments
print report bad tab
guest
You may want to rate the tab now too:
select rating
Wanna post a correction for this tab? Suggest correction