Oops, an error
Loading. Please wait.

Tu Amor Tab

35 views 1 this week
no commentswrite comment
1 2 3 4 5
3 more votes to show rating
add to favorites
launch autoscroll
font size
0
reset
how to read this tab
guitar tuner
Autoscroll
slow
fast
+/-
esc
set tempo
stop
Help us to improve Ultimate-Guitar.com Take our survey!
×
Buenos amigos aki estoy otra vez con una nueva transcripcion es de
la cancion TU AMOR de MAYRE MARTINEZ.
Esta es una cancion q le gusta mucho a mi Hnita!! asi q la sake
i ahi les va espero q les guste. En mi opinion esta en un 95%
algun error me comunican!!! a mi msn theromantic217@

Esta cancion se toca en 2 traste, asi q los acordes los voy a indicar
cotando del capo.

Los acordes son:

   [ch]A   [ch]D  [ch]E  [ch]F#m FA#[/ch] [ch]G#m[/ch] SI[/ch] [ch]C#[/ch] LA#m[/ch] SOL#[/ch]
e|-0----0---0----2----2---4-----2--4---1----4
B|-2----3---0----2----2---4-----4--5---2----4
G|-2----2---1----2----3---4-----4--5---3----5
D|-2----0---2----4----4---6-----4--5---3----6
A|-0----0---2----4----4---6-----2--4---1----6
E|-0----0---0----2----2---4-----2--4---1----4

INTRO:
e|-0-----0------0-----0------0-----0-----0---------------------|
B|-----------------------------------------3-2-3-2-0-----------|
G|---2-2---2-2----2-2---2-2----2-2---2-2-------------2-4-6-1---|
D|-----------------------------------------------------------4-|
A|-------------------------------------------------------------|
E|-------------------------------------------------------------|

Cada momento que
e|-0----0-----|
B|------------|
G|--2-2---2-2-|
D|------------|
A|------------|
E|------------|

estás en mi memoria
e|-0-----0-----|
B|-------------|
G|---2-2---2-2-|
D|-0-----0-----|
A|-------------|
E|-------------|

siento que sale el sol
e|-0-----0-----|
B|-------------|
G|---2-2---2-2-|
D|-------------|
A|-0-----0-----|
E|-------------|

que el tiempo se demora
e|-0-----------|
B|---3-2-3-2-0-|
G|-------------|
D|-------------|
A|-------------|
E|-------------|

tú me entregas todo
e|-------------------0-|
B|---------------0---3-|
G|-2-4-6-2---------1-2-|
D|---------4-2-------0-|
A|---------------------|
E|-------------0-------|

con el corazón
e|-----0-----0--|
B|-------3---0--|
G|---2-------1--|
D|-0---------2--|
A|-----------2--|
E|-----------0--|

[ch]B[/ch]
Eres refugio que
[ch]E[/ch]
refresca y da energía
[ch]B[/ch]
siempre has tenido el don
[ch]E[/ch]
para alegrarme el día
[ch]G#m[/ch]          [ch]F#[/ch]
tú me entregas todo
[ch]E         FA#[/ch]
con el corazón

Coro
[ch]B[/ch]
Desde el día que te conocí
[ch]E[/ch]
has mirado lo mejor de mí
[ch]G#m[/ch]
me has guiado cada paso
        [ch]F#[/ch]
Con tu amor
[ch]B[/ch]
Cada día, cada noche estás
[ch]E[/ch]
cada pena, cada triunfo estás
[ch]G#m[/ch]
me has llenado cada instante
        [ch]F#[/ch]
Con tu amor
    [ch]B[/ch]
Tu amor

e|-2/4-2-|
B|-------|
G|-------|
D|-------|
A|-------|
E|-------|

[ch]A[/ch]
Eres la historia que
[ch]D[/ch]
me inspira valentía
[ch]A[/ch]
somos comparación
[ch]D[/ch]
somos analogía
[ch]F#m[/ch]           [ch]E[/ch]
tú me entregas todo
[ch]D         [ch]E[/ch]  (FA#[/ch])
con el corazón

Coro
[ch]B[/ch]
Desde el día que te conocí
[ch]E[/ch]
has mirado lo mejor de mí
[ch]G#m[/ch]
me has guiado cada paso
        [ch]F#[/ch]
Con tu amor
[ch]B[/ch]
Cada día, cada noche estás
[ch]E[/ch]
cada pena, cada triunfo estás
[ch]G#m[/ch]
me has llenado cada instante
        [ch]F#[/ch]
Con tu amor
    [ch]B[/ch]
Tu amor
    [ch]E[/ch]
Tu amor

[ch]A[/ch]
Soportaste
[ch]D[/ch]
mis derrotas
[ch]A[/ch]
Arreglaste
    [ch]D[/ch]
las piezas rotas
      [ch]F#m[/ch]
Enfrentaste
                 [ch]E[/ch]
a quien me quizo ver caer
[ch]D              [ch]E[/ch]  (FA#[/ch])
y me pusiste de pie

Coro
[ch]C#[/ch]
Desde el día que te conocí
[ch]F#[/ch]
has mirado lo mejor de mí
[ch]A#m[/ch]
me has guiado cada paso
        [ch]G#[/ch]
Con tu amor
[ch]C#[/ch]
Cada día, cada noche estás
[ch]F#[/ch]
cada pena, cada triunfo estás
[ch]A#m[/ch]
me has llenado cada instante
        [ch]G#[/ch]
Con tu amor
             [ch]C#               FA#[/ch]
tú siempre estás, tú siempre estás
             [ch]A#m[/ch]    [ch]G#[/ch]
tú siempre estás
[ch]C#                    FA#[/ch]
Cada dia, cada noche estás
[ch]A#m[/ch]                      [ch]G#[/ch]
Cada pena, cada triundo estás
        [ch]C#[/ch]
Con tu amor                  Tu amor            Tu amor........
e|-4-----4------4-----4-2-1-2--4-----4------4--2--1--2--1--------X--|
B|---2-2---2-2----2-2------------2-2---2-2-----------------4--2--X--|
G|---------------------------------------------------------------6--|
D|---------------------------------------------------------------6--|
A|---------------------------------------------------------------4--|
E|---------------------------------------------------------------4--|

Weno eso es todo amigos, espero q les sirva la transcripcion,
por favor voten Gracias.!!!!
Suggest correction
Give kudos to tab author, rate the tab!
1 2 3 4 5
comments
print report bad tab
guest
You may want to rate the tab now too:
select rating
Wanna post a correction for this tab? Suggest correction